  0
SECTION
  2
HEADER
  9
$ACADVER
  1
AC1015
  9
$ACADMAINTVER
 70
     6
  9
$DWGCODEPAGE
  3
ANSI_1254
  9
$INSBASE
 10
0.0
 20
0.0
 30
0.0
  9
$EXTMIN
 10
0.0
 20
0.0
 30
0.0
  9
$EXTMAX
 10
279.4
 20
215.9
 30
0.0
  9
$LIMMIN
 10
0.0
 20
0.0
  9
$LIMMAX
 10
279.4
 20
215.9
  9
$ORTHOMODE
 70
     0
  9
$REGENMODE
 70
     1
  9
$FILLMODE
 70
     1
  9
$QTEXTMODE
 70
     0
  9
$MIRRTEXT
 70
     1
  9
$LTSCALE
 40
1.0
  9
$ATTMODE
 70
     1
  9
$TEXTSIZE
 40
3.5
  9
$TRACEWID
 40
1.0
  9
$TEXTSTYLE
  7
Standard
  9
$CLAYER
  8
0
  9
$CELTYPE
  6
ByLayer
  9
$CECOLOR
 62
   256
  9
$CELTSCALE
 40
1.0
  9
$DISPSILH
 70
     0
  9
$DIMSCALE
 40
1.0
  9
$DIMASZ
 40
3.5
  9
$DIMEXO
 40
1.0
  9
$DIMDLI
 40
3.75
  9
$DIMRND
 40
0.0
  9
$DIMDLE
 40
0.0
  9
$DIMEXE
 40
1.0
  9
$DIMTP
 40
0.0
  9
$DIMTM
 40
0.0
  9
$DIMTXT
 40
3.5
  9
$DIMCEN
 40
2.5
  9
$DIMTSZ
 40
0.0
  9
$DIMTOL
 70
     0
  9
$DIMLIM
 70
     0
  9
$DIMTIH
 70
     1
  9
$DIMTOH
 70
     1
  9
$DIMSE1
 70
     0
  9
$DIMSE2
 70
     0
  9
$DIMTAD
 70
     1
  9
$DIMZIN
 70
     0
  9
$DIMBLK
  1

  9
$DIMASO
 70
     1
  9
$DIMSHO
 70
     1
  9
$DIMPOST
  1

  9
$DIMAPOST
  1

  9
$DIMALT
 70
     0
  9
$DIMALTD
 70
     3
  9
$DIMALTF
 40
0.0393700787
  9
$DIMLFAC
 40
1.0
  9
$DIMTOFL
 70
     1
  9
$DIMTVP
 40
0.0
  9
$DIMTIX
 70
     0
  9
$DIMSOXD
 70
     0
  9
$DIMSAH
 70
     0
  9
$DIMBLK1
  1

  9
$DIMBLK2
  1

  9
$DIMSTYLE
  2
ISO-25
  9
$DIMCLRD
 70
     0
  9
$DIMCLRE
 70
     0
  9
$DIMCLRT
 70
     0
  9
$DIMTFAC
 40
1.0
  9
$DIMGAP
 40
1.524
  9
$DIMJUST
 70
     0
  9
$DIMSD1
 70
     0
  9
$DIMSD2
 70
     0
  9
$DIMTOLJ
 70
     0
  9
$DIMTZIN
 70
     0
  9
$DIMALTZ
 70
     0
  9
$DIMALTTZ
 70
     0
  9
$DIMUPT
 70
     0
  9
$DIMDEC
 70
     2
  9
$DIMTDEC
 70
     2
  9
$DIMALTU
 70
     2
  9
$DIMALTTD
 70
     3
  9
$DIMTXSTY
  7
Standard
  9
$DIMAUNIT
 70
     0
  9
$DIMADEC
 70
     2
  9
$DIMALTRND
 40
0.0
  9
$DIMAZIN
 70
     0
  9
$DIMDSEP
 70
    44
  9
$DIMATFIT
 70
     3
  9
$DIMFRAC
 70
     0
  9
$DIMLDRBLK
  1

  9
$DIMLUNIT
 70
     2
  9
$DIMLWD
 70
    -2
  9
$DIMLWE
 70
    -2
  9
$DIMTMOVE
 70
     0
  9
$LUNITS
 70
     2
  9
$LUPREC
 70
     2
  9
$SKETCHINC
 40
1.0
  9
$FILLETRAD
 40
10.0
  9
$AUNITS
 70
     0
  9
$AUPREC
 70
     2
  9
$MENU
  1
.
  9
$ELEVATION
 40
0.0
  9
$PELEVATION
 40
0.0
  9
$THICKNESS
 40
0.0
  9
$LIMCHECK
 70
     0
  9
$CHAMFERA
 40
0.0
  9
$CHAMFERB
 40
0.0
  9
$CHAMFERC
 40
0.0
  9
$CHAMFERD
 40
0.0
  9
$SKPOLY
 70
     0
  9
$TDCREATE
 40
2459935.709542882
  9
$TDUCREATE
 40
2459935.584542882
  9
$TDUPDATE
 40
2459935.709543067
  9
$TDUUPDATE
 40
2459935.584543067
  9
$TDINDWG
 40
0.0000000116
  9
$TDUSRTIMER
 40
0.0000000116
  9
$USRTIMER
 70
     1
  9
$ANGBASE
 50
0.0
  9
$ANGDIR
 70
     0
  9
$PDMODE
 70
     0
  9
$PDSIZE
 40
-1.0
  9
$PLINEWID
 40
0.0
  9
$SPLFRAME
 70
     0
  9
$SPLINETYPE
 70
     6
  9
$SPLINESEGS
 70
     8
  9
$HANDSEED
  5
128
  9
$SURFTAB1
 70
     6
  9
$SURFTAB2
 70
     6
  9
$SURFTYPE
 70
     6
  9
$SURFU
 70
     6
  9
$SURFV
 70
     6
  9
$UCSBASE
  2

  9
$UCSNAME
  2

  9
$UCSORG
 10
0.0
 20
0.0
 30
0.0
  9
$UCSXDIR
 10
1.0
 20
0.0
 30
0.0
  9
$UCSYDIR
 10
0.0
 20
1.0
 30
0.0
  9
$UCSORTHOREF
  2

  9
$UCSORTHOVIEW
 70
     0
  9
$UCSORGTOP
 10
0.0
 20
0.0
 30
0.0
  9
$UCSORGBOTTOM
 10
0.0
 20
0.0
 30
0.0
  9
$UCSORGLEFT
 10
0.0
 20
0.0
 30
0.0
  9
$UCSORGRIGHT
 10
0.0
 20
0.0
 30
0.0
  9
$UCSORGFRONT
 10
0.0
 20
0.0
 30
0.0
  9
$UCSORGBACK
 10
0.0
 20
0.0
 30
0.0
  9
$PUCSBASE
  2

  9
$PUCSNAME
  2

  9
$PUCSORG
 10
0.0
 20
0.0
 30
0.0
  9
$PUCSXDIR
 10
1.0
 20
0.0
 30
0.0
  9
$PUCSYDIR
 10
0.0
 20
1.0
 30
0.0
  9
$PUCSORTHOREF
  2

  9
$PUCSORTHOVIEW
 70
     0
  9
$PUCSORGTOP
 10
0.0
 20
0.0
 30
0.0
  9
$PUCSORGBOTTOM
 10
0.0
 20
0.0
 30
0.0
  9
$PUCSORGLEFT
 10
0.0
 20
0.0
 30
0.0
  9
$PUCSORGRIGHT
 10
0.0
 20
0.0
 30
0.0
  9
$PUCSORGFRONT
 10
0.0
 20
0.0
 30
0.0
  9
$PUCSORGBACK
 10
0.0
 20
0.0
 30
0.0
  9
$USERI1
 70
     0
  9
$USERI2
 70
     0
  9
$USERI3
 70
     0
  9
$USERI4
 70
     0
  9
$USERI5
 70
     0
  9
$USERR1
 40
0.0
  9
$USERR2
 40
0.0
  9
$USERR3
 40
0.0
  9
$USERR4
 40
0.0
  9
$USERR5
 40
0.0
  9
$WORLDVIEW
 70
     1
  9
$SHADEDGE
 70
     3
  9
$SHADEDIF
 70
    70
  9
$TILEMODE
 70
     1
  9
$MAXACTVP
 70
    64
  9
$PINSBASE
 10
0.0
 20
0.0
 30
0.0
  9
$PLIMCHECK
 70
     0
  9
$PEXTMIN
 10
1.0000000000E+20
 20
1.0000000000E+20
 30
1.0000000000E+20
  9
$PEXTMAX
 10
-1.0000000000E+20
 20
-1.0000000000E+20
 30
-1.0000000000E+20
  9
$PLIMMIN
 10
0.0
 20
0.0
  9
$PLIMMAX
 10
420.0
 20
297.0
  9
$UNITMODE
 70
     0
  9
$VISRETAIN
 70
     1
  9
$PLINEGEN
 70
     0
  9
$PSLTSCALE
 70
     1
  9
$TREEDEPTH
 70
  3020
  9
$CMLSTYLE
  2
Standard
  9
$CMLJUST
 70
     0
  9
$CMLSCALE
 40
20.0
  9
$PROXYGRAPHICS
 70
     1
  9
$MEASUREMENT
 70
     1
  9
$CELWEIGHT
370
    -1
  9
$ENDCAPS
280
     0
  9
$JOINSTYLE
280
     0
  9
$LWDISPLAY
290
     1
  9
$INSUNITS
 70
     4
  9
$HYPERLINKBASE
  1

  9
$STYLESHEET
  1

  9
$XEDIT
290
     1
  9
$CEPSNTYPE
380
     0
  9
$PSTYLEMODE
290
     1
  9
$FINGERPRINTGUID
  2
{a425216d-ffad-4b63-84f9-b2e3c4b3a326}
  9
$VERSIONGUID
  2
{FAEB1C32-E019-11D5-929B-00C0DF256EC4}
  9
$EXTNAMES
290
     1
  9
$PSVPSCALE
 40
0.0
  9
$OLESTARTUP
290
     0
  0
ENDSEC
  0
SECTION
  2
CLASSES
  0
CLASS
  1
ACDBDICTIONARYWDFLT
  2
AcDbDictionaryWithDefault
  3
ObjectDBX Classes
 90
        0
280
     0
281
     0
  0
CLASS
  1
VISUALSTYLE
  2
AcDbVisualStyle
  3
ObjectDBX Classes
 90
     4095
280
     0
281
     0
  0
CLASS
  1
MATERIAL
  2
AcDbMaterial
  3
ObjectDBX Classes
 90
     1153
280
     0
281
     0
  0
CLASS
  1
SCALE
  2
AcDbScale
  3
ObjectDBX Classes
 90
     1153
280
     0
281
     0
  0
CLASS
  1
TABLESTYLE
  2
AcDbTableStyle
  3
ObjectDBX Classes
 90
     4095
280
     0
281
     0
  0
CLASS
  1
MLEADERSTYLE
  2
AcDbMLeaderStyle
  3
ACDB_MLEADERSTYLE_CLASS
 90
     4095
280
     0
281
     0
  0
CLASS
  1
SUN
  2
AcDbSun
  3
SCENEOE
 90
     1153
280
     0
281
     0
  0
CLASS
  1
ACDBPLACEHOLDER
  2
AcDbPlaceHolder
  3
ObjectDBX Classes
 90
        0
280
     0
281
     0
  0
CLASS
  1
LAYOUT
  2
AcDbLayout
  3
ObjectDBX Classes
 90
        0
280
     0
281
     0
  0
ENDSEC
  0
SECTION
  2
TABLES
  0
TABLE
  2
VPORT
  5
8
330
0
100
AcDbSymbolTable
 70
     1
  0
VPORT
  5
29
330
8
100
AcDbSymbolTableRecord
100
AcDbViewportTableRecord
  2
*Active
 70
     0
 10
0.0
 20
0.0
 11
1.0
 21
1.0
 12
139.7
 22
107.95
 13
0.0
 23
0.0
 14
10.0
 24
10.0
 15
10.0
 25
10.0
 16
0.0
 26
0.0
 36
1.0
 17
0.0
 27
0.0
 37
0.0
 40
215.9
 41
1.2941176471
 42
50.0
 43
0.0
 44
0.0
 50
0.0
 51
0.0
 71
     0
 72
  2000
 73
     1
 74
     3
 75
     0
 76
     0
 77
     0
 78
     0
281
     0
 65
     1
110
0.0
120
0.0
130
0.0
111
1.0
121
0.0
131
0.0
112
0.0
122
1.0
132
0.0
 79
     0
146
0.0
  0
ENDTAB
  0
TABLE
  2
LTYPE
  5
5
330
0
100
AcDbSymbolTable
 70
     6
  0
LTYPE
  5
14
330
5
100
AcDbSymbolTableRecord
100
AcDbLinetypeTableRecord
  2
ByBlock
 70
     0
  3

 72
    65
 73
     0
 40
0.0
  0
LTYPE
  5
15
330
5
100
AcDbSymbolTableRecord
100
AcDbLinetypeTableRecord
  2
ByLayer
 70
     0
  3

 72
    65
 73
     0
 40
0.0
  0
LTYPE
  5
16
330
5
100
AcDbSymbolTableRecord
100
AcDbLinetypeTableRecord
  2
Continuous
 70
     0
  3
Solid line
 72
    65
 73
     0
 40
0.0
  0
LTYPE
  5
6E
330
5
100
AcDbSymbolTableRecord
100
AcDbLinetypeTableRecord
  2
HIDDEN
 70
     0
  3
Hidden __ __ __ __ __ __ __ __ __ __ __ __ __ __
 72
    65
 73
     2
 40
1.905
 49
1.27
 74
     0
 49
-0.635
 74
     0
  0
LTYPE
  5
6F
330
5
100
AcDbSymbolTableRecord
100
AcDbLinetypeTableRecord
  2
PHANTOM
 70
     0
  3
Phantom ______  __  __  ______  __  __  ______
 72
    65
 73
     6
 40
12.7
 49
6.35
 74
     0
 49
-1.27
 74
     0
 49
1.27
 74
     0
 49
-1.27
 74
     0
 49
1.27
 74
     0
 49
-1.27
 74
     0
  0
LTYPE
  5
70
330
5
100
AcDbSymbolTableRecord
100
AcDbLinetypeTableRecord
  2
CENTER
 70
     0
  3
Center ____ _ ____ _ ____ _ ____ _ ____ _ ____
 72
    65
 73
     4
 40
10.16
 49
6.35
 74
     0
 49
-1.27
 74
     0
 49
1.27
 74
     0
 49
-1.27
 74
     0
  0
LTYPE
  5
71
330
5
100
AcDbSymbolTableRecord
100
AcDbLinetypeTableRecord
  2
CENTERX2
 70
     0
  3
Center (2x) ________  __  ________  __  _____
 72
    65
 73
     4
 40
20.32
 49
12.7
 74
     0
 49
-2.54
 74
     0
 49
2.54
 74
     0
 49
-2.54
 74
     0
  0
LTYPE
  5
72
330
5
100
AcDbSymbolTableRecord
100
AcDbLinetypeTableRecord
  2
DOT2
 70
     0
  3
Dot (.5x) ........................................
 72
    65
 73
     2
 40
0.635
 49
0.0
 74
     0
 49
-0.635
 74
     0
  0
ENDTAB
  0
TABLE
  2
LAYER
  5
2
330
0
100
AcDbSymbolTable
 70
    17
  0
LAYER
  5
10
330
2
100
AcDbSymbolTableRecord
100
AcDbLayerTableRecord
  2
0
 70
     0
 62
     7
  6
Continuous
370
    -3
390
F
  0
LAYER
  5
73
330
2
100
AcDbSymbolTableRecord
100
AcDbLayerTableRecord
  2
FORMAT
 70
     0
 62
     7
  6
Continuous
370
    -3
390
F
  0
LAYER
  5
74
330
2
100
AcDbSymbolTableRecord
100
AcDbLayerTableRecord
  2
YARDIMCI_GEOMETRI
 70
     0
 62
    -6
  6
Continuous
290
     0
370
    -3
390
F
  0
LAYER
  5
75
330
2
100
AcDbSymbolTableRecord
100
AcDbLayerTableRecord
  2
SAYFA_CERCEVESI
 70
     0
 62
     7
  6
Continuous
370
    25
390
F
  0
LAYER
  5
76
330
2
100
AcDbSymbolTableRecord
100
AcDbLayerTableRecord
  2
ANTET
 70
     0
 62
     7
  6
Continuous
370
    -3
390
F
  0
LAYER
  5
77
330
2
100
AcDbSymbolTableRecord
100
AcDbLayerTableRecord
  2
OLCU
 70
     0
 62
   150
  6
Continuous
370
    -3
390
F
  0
LAYER
  5
78
330
2
100
AcDbSymbolTableRecord
100
AcDbLayerTableRecord
  2
METIN
 70
     0
 62
    96
  6
Continuous
370
    -3
390
F
  0
LAYER
  5
79
330
2
100
AcDbSymbolTableRecord
100
AcDbLayerTableRecord
  2
BALON
 70
     0
 62
     5
  6
Continuous
370
    -3
390
F
  0
LAYER
  5
7A
330
2
100
AcDbSymbolTableRecord
100
AcDbLayerTableRecord
  2
VURGU
 70
     0
 62
     7
  6
Continuous
370
    -3
390
F
  0
LAYER
  5
7B
330
2
100
AcDbSymbolTableRecord
100
AcDbLayerTableRecord
  2
SILIK
 70
     0
 62
     7
  6
Continuous
370
    -3
390
F
  0
LAYER
  5
7C
330
2
100
AcDbSymbolTableRecord
100
AcDbLayerTableRecord
  2
MODEL
 70
     0
 62
     7
  6
Continuous
370
    -3
390
F
  0
LAYER
  5
7D
330
2
100
AcDbSymbolTableRecord
100
AcDbLayerTableRecord
  2
DETAYLANDıRMA
 70
     0
 62
   190
  6
Continuous
370
    -3
390
F
  0
LAYER
  5
7E
330
2
100
AcDbSymbolTableRecord
100
AcDbLayerTableRecord
  2
TOLERANS
 70
     0
 62
   230
  6
Continuous
370
    -3
390
F
  0
LAYER
  5
7F
330
2
100
AcDbSymbolTableRecord
100
AcDbLayerTableRecord
  2
MERKEZ_CIZGILERI
 70
     0
 62
    30
  6
Continuous
370
    -3
390
F
  0
LAYER
  5
80
330
2
100
AcDbSymbolTableRecord
100
AcDbLayerTableRecord
  2
KESIT-DETAY_CIZGILERI
 70
     0
 62
     7
  6
Continuous
370
    -3
390
F
  0
LAYER
  5
81
330
2
100
AcDbSymbolTableRecord
100
AcDbLayerTableRecord
  2
\U+041E\U+0421\U+0415\U+0412\U+042B\U+0415
 70
     0
 62
     7
  6
Continuous
370
    -3
390
F
  0
LAYER
  5
82
330
2
100
AcDbSymbolTableRecord
100
AcDbLayerTableRecord
  2
\U+0412\U+041E\U+0414\U+042F\U+041D\U+042B\U+0415_\U+0417\U+041D\U+0410\U+041A\U+0418
 70
     0
 62
    11
  6
Continuous
370
    -3
390
F
  0
ENDTAB
  0
TABLE
  2
STYLE
  5
3
330
0
100
AcDbSymbolTable
 70
     1
  0
STYLE
  5
11
330
3
100
AcDbSymbolTableRecord
100
AcDbTextStyleTableRecord
  2
Standard
 70
     0
 40
0.0
 41
1.0
 50
0.0
 71
     0
 42
3.5
  3
txt
  4

  0
ENDTAB
  0
TABLE
  2
VIEW
  5
6
330
0
100
AcDbSymbolTable
 70
     0
  0
ENDTAB
  0
TABLE
  2
UCS
  5
7
330
0
100
AcDbSymbolTable
 70
     0
  0
ENDTAB
  0
TABLE
  2
APPID
  5
9
330
0
100
AcDbSymbolTable
 70
     1
  0
APPID
  5
12
330
9
100
AcDbSymbolTableRecord
100
AcDbRegAppTableRecord
  2
ACAD
 70
     0
  0
ENDTAB
  0
TABLE
  2
DIMSTYLE
  5
A
330
0
100
AcDbSymbolTable
 70
     1
100
AcDbDimStyleTable
  0
DIMSTYLE
105
27
330
A
100
AcDbSymbolTableRecord
100
AcDbDimStyleTableRecord
  2
ISO-25
 70
     0
 41
2.5
 42
0.625
 43
3.75
 44
1.25
 73
     0
 74
     0
 77
     1
 78
     8
140
2.5
141
2.5
143
0.0393700787
147
0.625
171
     3
172
     1
178
     0
271
     2
272
     2
274
     3
278
    44
283
     0
284
     8
340
11
  0
ENDTAB
  0
TABLE
  2
BLOCK_RECORD
  5
1
330
0
100
AcDbSymbolTable
 70
     2
  0
BLOCK_RECORD
  5
1F
330
1
100
AcDbSymbolTableRecord
100
AcDbBlockTableRecord
  2
*Model_Space
340
22
  0
BLOCK_RECORD
  5
1B
330
1
100
AcDbSymbolTableRecord
100
AcDbBlockTableRecord
  2
*Paper_Space
340
1E
  0
BLOCK_RECORD
  5
23
330
1
100
AcDbSymbolTableRecord
100
AcDbBlockTableRecord
  2
*Paper_Space0
340
26
  0
BLOCK_RECORD
  5
88
330
1
100
AcDbSymbolTableRecord
100
AcDbBlockTableRecord
  2
SW_CENTERMARKSYMBOL_0
340
0
102
{BLKREFS
331
93
102
}
  0
ENDTAB
  0
ENDSEC
  0
SECTION
  2
BLOCKS
  0
BLOCK
  5
20
330
1F
100
AcDbEntity
  8
0
100
AcDbBlockBegin
  2
*Model_Space
 70
     0
 10
0.0
 20
0.0
 30
0.0
  3
*Model_Space
  1

  0
ENDBLK
  5
21
330
1F
100
AcDbEntity
  8
0
100
AcDbBlockEnd
  0
BLOCK
  5
1C
330
1B
100
AcDbEntity
 67
     1
  8
0
100
AcDbBlockBegin
  2
*Paper_Space
 70
     0
 10
0.0
 20
0.0
 30
0.0
  3
*Paper_Space
  1

  0
ENDBLK
  5
1D
330
1B
100
AcDbEntity
 67
     1
  8
0
100
AcDbBlockEnd
  0
BLOCK
  5
24
330
23
100
AcDbEntity
  8
0
100
AcDbBlockBegin
  2
*Paper_Space0
 70
     0
 10
0.0
 20
0.0
 30
0.0
  3
*Paper_Space0
  1

  0
ENDBLK
  5
25
330
23
100
AcDbEntity
  8
0
100
AcDbBlockEnd
  0
BLOCK
  5
89
330
88
100
AcDbEntity
  8
0
100
AcDbBlockBegin
  2
SW_CENTERMARKSYMBOL_0
 70
     0
 10
0.0
 20
0.0
 30
0.0
  3
SW_CENTERMARKSYMBOL_0
  1

  0
LINE
  5
8B
330
88
100
AcDbEntity
  8
FORMAT
 62
     0
100
AcDbLine
 10
0.0
 20
0.0
 30
0.0
 11
0.0
 21
2.5
 31
0.0
  0
LINE
  5
8C
330
88
100
AcDbEntity
  8
FORMAT
 62
     0
100
AcDbLine
 10
0.0
 20
0.0
 30
0.0
 11
-2.5
 21
0.0
 31
0.0
  0
LINE
  5
8D
330
88
100
AcDbEntity
  8
FORMAT
 62
     0
100
AcDbLine
 10
0.0
 20
0.0
 30
0.0
 11
0.0
 21
-2.5
 31
0.0
  0
LINE
  5
8E
330
88
100
AcDbEntity
  8
FORMAT
 62
     0
100
AcDbLine
 10
0.0
 20
0.0
 30
0.0
 11
2.5
 21
0.0
 31
0.0
  0
LINE
  5
8F
330
88
100
AcDbEntity
  8
FORMAT
 62
     0
100
AcDbLine
 10
0.0
 20
5.0
 30
0.0
 11
0.0
 21
65.0
 31
0.0
  0
LINE
  5
90
330
88
100
AcDbEntity
  8
FORMAT
 62
     0
100
AcDbLine
 10
-5.0
 20
0.0
 30
0.0
 11
-65.0
 21
0.0
 31
0.0
  0
LINE
  5
91
330
88
100
AcDbEntity
  8
FORMAT
 62
     0
100
AcDbLine
 10
0.0
 20
-5.0
 30
0.0
 11
0.0
 21
-65.0
 31
0.0
  0
LINE
  5
92
330
88
100
AcDbEntity
  8
FORMAT
 62
     0
100
AcDbLine
 10
5.0
 20
0.0
 30
0.0
 11
65.0
 21
0.0
 31
0.0
  0
ENDBLK
  5
8A
330
88
100
AcDbEntity
  8
0
100
AcDbBlockEnd
  0
ENDSEC
  0
SECTION
  2
ENTITIES
  0
CIRCLE
  5
83
330
1F
100
AcDbEntity
  8
0
  6
Continuous
 62
     7
370
    25
100
AcDbCircle
 10
139.8323425481
 20
108.7440552885
 30
0.0
 40
51.10000000000001
  0
CIRCLE
  5
84
330
1F
100
AcDbEntity
  8
0
  6
Continuous
 62
     7
370
    25
100
AcDbCircle
 10
139.8323425481
 20
108.7440552885
 30
0.0
 40
62.50000000000001
  0
CIRCLE
  5
85
330
1F
100
AcDbEntity
  8
0
  6
Continuous
 62
     7
370
    25
100
AcDbCircle
 10
139.8323425481
 20
108.7440552885
 30
0.0
 40
50.00000000000003
  0
CIRCLE
  5
86
330
1F
100
AcDbEntity
  8
0
  6
Continuous
 62
     7
370
    25
100
AcDbCircle
 10
139.8323425481
 20
108.7440552885
 30
0.0
 40
78.0
  0
CIRCLE
  5
87
330
1F
100
AcDbEntity
  8
0
  6
Continuous
 62
     7
370
    25
100
AcDbCircle
 10
139.8323425481
 20
108.7440552885
 30
0.0
 40
78.50000000000003
  0
INSERT
  5
93
330
1F
100
AcDbEntity
  8
FORMAT
 62
     7
100
AcDbBlockReference
  2
SW_CENTERMARKSYMBOL_0
 10
139.8323425481
 20
108.7440552885
 30
0.0
  0
LINE
  5
94
330
1F
100
AcDbEntity
  8
0
  6
Continuous
 62
     7
370
    25
100
AcDbLine
 10
218.3323425481
 20
273.3249015623
 30
0.0
 11
218.3323425481
 21
325.8249015623
 31
0.0
  0
LINE
  5
95
330
1F
100
AcDbEntity
  8
0
  6
Continuous
 62
     7
370
    25
100
AcDbLine
 10
61.3323425481
 20
325.8249015623
 30
0.0
 11
61.3323425481
 21
273.3249015623
 31
0.0
  0
ARC
  5
96
330
1F
100
AcDbEntity
  8
0
  6
Continuous
 62
     7
370
    25
100
AcDbCircle
 10
217.8323425481
 20
325.8249015623
 30
0.0
 40
0.5000000000000284
100
AcDbArc
 50
0.0
 51
90.0
  0
ARC
  5
97
330
1F
100
AcDbEntity
  8
0
  6
Continuous
 62
     7
370
    25
100
AcDbCircle
 10
61.8323425481
 20
325.8249015623
 30
0.0
 40
0.5
100
AcDbArc
 50
90.0
 51
180.0
  0
LINE
  5
98
330
1F
100
AcDbEntity
  8
0
  6
Continuous
 62
     7
370
    25
100
AcDbLine
 10
202.3323425481
 20
326.3249015623
 30
0.0
 11
202.3323425481
 21
414.3249015623
 31
0.0
  0
LINE
  5
99
330
1F
100
AcDbEntity
  8
0
  6
Continuous
 62
     7
370
    25
100
AcDbLine
 10
77.3323425481
 20
414.3249015623
 30
0.0
 11
77.3323425481
 21
326.3249015623
 31
0.0
  0
LINE
  5
9A
330
1F
100
AcDbEntity
  8
0
  6
Continuous
 62
     7
370
    25
100
AcDbLine
 10
218.3323425481
 20
273.3249015623
 30
0.0
 11
61.3323425481
 21
273.3249015623
 31
0.0
  0
LINE
  5
9B
330
1F
100
AcDbEntity
  8
0
  6
Continuous
 62
     7
370
    25
100
AcDbLine
 10
217.8323425469
 20
326.3249015623
 30
0.0
 11
61.8323425481
 21
326.3249015623
 31
0.0
  0
LINE
  5
9C
330
1F
100
AcDbEntity
  8
0
  6
Continuous
 62
     7
370
    25
100
AcDbLine
 10
79.8323425481
 20
272.3249015623
 30
0.0
 11
94.6768979818
 21
272.3249015623
 31
0.0
  0
LINE
  5
9D
330
1F
100
AcDbEntity
  8
0
  6
Continuous
 62
     7
370
    25
100
AcDbLine
 10
79.8323425481
 20
273.3249015623
 30
0.0
 11
79.8323425481
 21
272.3249015623
 31
0.0
  0
LINE
  5
9E
330
1F
100
AcDbEntity
  8
0
  6
Continuous
 62
     7
370
    25
100
AcDbLine
 10
139.8323425481
 20
273.3249015623
 30
0.0
 11
139.8323425481
 21
272.3249015623
 31
0.0
  0
LINE
  5
9F
330
1F
100
AcDbEntity
  8
0
  6
Continuous
 62
     7
370
    25
100
AcDbLine
 10
124.9877871143
 20
272.3249015623
 30
0.0
 11
139.8323425481
 21
272.3249015623
 31
0.0
  0
LINE
  5
A0
330
1F
100
AcDbEntity
  8
0
  6
Continuous
 62
     7
370
    25
100
AcDbLine
 10
124.9877871143
 20
261.3249015623
 30
0.0
 11
124.9877871143
 21
272.3249015623
 31
0.0
  0
LINE
  5
A1
330
1F
100
AcDbEntity
  8
0
  6
Continuous
 62
     7
370
    25
100
AcDbLine
 10
124.9877871143
 20
261.3249015623
 30
0.0
 11
94.6768979818
 21
261.3249015623
 31
0.0
  0
LINE
  5
A2
330
1F
100
AcDbEntity
  8
0
  6
Continuous
 62
     7
370
    25
100
AcDbLine
 10
94.6768979818
 20
272.3249015623
 30
0.0
 11
94.6768979818
 21
261.3249015623
 31
0.0
  0
LINE
  5
A3
330
1F
100
AcDbEntity
  8
0
  6
Continuous
 62
     7
370
    25
100
AcDbLine
 10
139.8323425481
 20
272.3249015623
 30
0.0
 11
154.6768979818
 21
272.3249015623
 31
0.0
  0
LINE
  5
A4
330
1F
100
AcDbEntity
  8
0
  6
Continuous
 62
     7
370
    25
100
AcDbLine
 10
199.8323425481
 20
273.3249015623
 30
0.0
 11
199.8323425481
 21
272.3249015623
 31
0.0
  0
LINE
  5
A5
330
1F
100
AcDbEntity
  8
0
  6
Continuous
 62
     7
370
    25
100
AcDbLine
 10
184.9877871143
 20
272.3249015623
 30
0.0
 11
199.8323425481
 21
272.3249015623
 31
0.0
  0
LINE
  5
A6
330
1F
100
AcDbEntity
  8
0
  6
Continuous
 62
     7
370
    25
100
AcDbLine
 10
184.9877871143
 20
261.3249015623
 30
0.0
 11
184.9877871143
 21
272.3249015623
 31
0.0
  0
LINE
  5
A7
330
1F
100
AcDbEntity
  8
0
  6
Continuous
 62
     7
370
    25
100
AcDbLine
 10
184.9877871143
 20
261.3249015623
 30
0.0
 11
154.6768979818
 21
261.3249015623
 31
0.0
  0
LINE
  5
A8
330
1F
100
AcDbEntity
  8
0
  6
Continuous
 62
     7
370
    25
100
AcDbLine
 10
154.6768979818
 20
272.3249015623
 30
0.0
 11
154.6768979818
 21
261.3249015623
 31
0.0
  0
LINE
  5
A9
330
1F
100
AcDbEntity
  8
0
  6
Continuous
 62
     7
370
    25
100
AcDbLine
 10
154.6768979818
 20
261.3249015623
 30
0.0
 11
124.9877871143
 21
261.3249015623
 31
0.0
  0
LINE
  5
AA
330
1F
100
AcDbEntity
  8
0
  6
Continuous
 62
     7
370
    25
100
AcDbLine
 10
202.3323425481
 20
414.3249015623
 30
0.0
 11
77.3323425481
 21
414.3249015623
 31
0.0
  0
LINE
  5
AB
330
1F
100
AcDbEntity
  8
0
  6
Continuous
 62
     7
370
    25
100
AcDbLine
 10
79.8323425481
 20
261.3249015623
 30
0.0
 11
79.8323425481
 21
272.3249015623
 31
0.0
  0
LINE
  5
AC
330
1F
100
AcDbEntity
  8
0
  6
Continuous
 62
     7
370
    25
100
AcDbLine
 10
94.6768979818
 20
261.3249015623
 30
0.0
 11
79.8323425481
 21
261.3249015623
 31
0.0
  0
LINE
  5
AD
330
1F
100
AcDbEntity
  8
0
  6
Continuous
 62
     7
370
    25
100
AcDbLine
 10
199.8323425481
 20
272.3249015623
 30
0.0
 11
199.8323425481
 21
261.3249015623
 31
0.0
  0
LINE
  5
AE
330
1F
100
AcDbEntity
  8
0
  6
Continuous
 62
     7
370
    25
100
AcDbLine
 10
199.8323425481
 20
261.3249015623
 30
0.0
 11
184.9877871143
 21
261.3249015623
 31
0.0
  0
LINE
  5
AF
330
1F
100
AcDbEntity
  8
0
  6
Continuous
 62
     1
370
    25
100
AcDbLine
 10
218.3323425481
 20
325.8249015623
 30
0.0
 11
61.3323425481
 21
325.8249015623
 31
0.0
  0
LINE
  5
B0
330
1F
100
AcDbEntity
  8
0
  6
Continuous
 62
     7
370
    25
100
AcDbLine
 10
320.8936888872
 20
30.2440552885
 30
0.0
 11
373.3936888872
 21
30.2440552885
 31
0.0
  0
LINE
  5
B1
330
1F
100
AcDbEntity
  8
0
  6
Continuous
 62
     7
370
    25
100
AcDbLine
 10
373.3936888872
 20
187.2440552885
 30
0.0
 11
320.8936888872
 21
187.2440552885
 31
0.0
  0
ARC
  5
B2
330
1F
100
AcDbEntity
  8
0
  6
Continuous
 62
     7
370
    25
100
AcDbCircle
 10
373.3936888872
 20
30.7440552885
 30
0.0
 40
0.5000000000000142
100
AcDbArc
 50
270.0
 51
0.0
  0
ARC
  5
B3
330
1F
100
AcDbEntity
  8
0
  6
Continuous
 62
     7
370
    25
100
AcDbCircle
 10
373.3936888872
 20
186.7440552885
 30
0.0
 40
0.5
100
AcDbArc
 50
0.0
 51
90.0
  0
LINE
  5
B4
330
1F
100
AcDbEntity
  8
0
  6
Continuous
 62
     7
370
    25
100
AcDbLine
 10
373.8936888872
 20
46.2440552885
 30
0.0
 11
461.8936888872
 21
46.2440552885
 31
0.0
  0
LINE
  5
B5
330
1F
100
AcDbEntity
  8
0
  6
Continuous
 62
     7
370
    25
100
AcDbLine
 10
461.8936888872
 20
171.2440552885
 30
0.0
 11
373.8936888872
 21
171.2440552885
 31
0.0
  0
LINE
  5
B6
330
1F
100
AcDbEntity
  8
0
  6
Continuous
 62
     7
370
    25
100
AcDbLine
 10
308.8936888872
 20
46.2440552885
 30
0.0
 11
319.8936888872
 21
46.2440552885
 31
0.0
  0
LINE
  5
B7
330
1F
100
AcDbEntity
  8
0
  6
Continuous
 62
     7
370
    25
100
AcDbLine
 10
319.8936888872
 20
171.2440552885
 30
0.0
 11
308.8936888872
 21
171.2440552885
 31
0.0
  0
LINE
  5
B8
330
1F
100
AcDbEntity
  8
0
  6
Continuous
 62
     7
370
    25
100
AcDbLine
 10
320.8936888872
 20
108.7440552885
 30
0.0
 11
320.8936888872
 21
187.2440552885
 31
0.0
  0
LINE
  5
B9
330
1F
100
AcDbEntity
  8
0
  6
Continuous
 62
     7
370
    25
100
AcDbLine
 10
320.8936888872
 20
30.2440552885
 30
0.0
 11
320.8936888872
 21
108.7440552885
 31
0.0
  0
LINE
  5
BA
330
1F
100
AcDbEntity
  8
0
  6
Continuous
 62
     7
370
    25
100
AcDbLine
 10
373.8936888872
 20
108.7440552885
 30
0.0
 11
373.8936888872
 21
186.7440552885
 31
0.0
  0
LINE
  5
BB
330
1F
100
AcDbEntity
  8
0
  6
Continuous
 62
     7
370
    25
100
AcDbLine
 10
373.8936888872
 20
30.7440552885
 30
0.0
 11
373.8936888872
 21
108.7440552885
 31
0.0
  0
LINE
  5
BC
330
1F
100
AcDbEntity
  8
0
  6
Continuous
 62
     7
370
    25
100
AcDbLine
 10
461.8936888872
 20
108.7440552885
 30
0.0
 11
461.8936888872
 21
171.2440552885
 31
0.0
  0
LINE
  5
BD
330
1F
100
AcDbEntity
  8
0
  6
Continuous
 62
     7
370
    25
100
AcDbLine
 10
461.8936888872
 20
46.2440552885
 30
0.0
 11
461.8936888872
 21
108.7440552885
 31
0.0
  0
LINE
  5
BE
330
1F
100
AcDbEntity
  8
0
  6
Continuous
 62
     7
370
    25
100
AcDbLine
 10
319.8936888872
 20
74.1030391371
 30
0.0
 11
319.8936888872
 21
65.5325310614
 31
0.0
  0
LINE
  5
BF
330
1F
100
AcDbEntity
  8
0
  6
Continuous
 62
     7
370
    25
100
AcDbLine
 10
320.8936888872
 20
74.1030391371
 30
0.0
 11
319.8936888872
 21
74.1030391371
 31
0.0
  0
LINE
  5
C0
330
1F
100
AcDbEntity
  8
0
  6
Continuous
 62
     7
370
    25
100
AcDbLine
 10
320.8936888872
 20
39.4620229857
 30
0.0
 11
319.8936888872
 21
39.4620229857
 31
0.0
  0
LINE
  5
C1
330
1F
100
AcDbEntity
  8
0
  6
Continuous
 62
     7
370
    25
100
AcDbLine
 10
319.8936888872
 20
48.0325310614
 30
0.0
 11
319.8936888872
 21
39.4620229857
 31
0.0
  0
LINE
  5
C2
330
1F
100
AcDbEntity
  8
0
  6
Continuous
 62
     7
370
    25
100
AcDbLine
 10
308.8936888872
 20
48.0325310614
 30
0.0
 11
319.8936888872
 21
48.0325310614
 31
0.0
  0
LINE
  5
C3
330
1F
100
AcDbEntity
  8
0
  6
Continuous
 62
     7
370
    25
100
AcDbLine
 10
308.8936888872
 20
48.0325310614
 30
0.0
 11
308.8936888872
 21
65.5325310614
 31
0.0
  0
LINE
  5
C4
330
1F
100
AcDbEntity
  8
0
  6
Continuous
 62
     7
370
    25
100
AcDbLine
 10
319.8936888872
 20
65.5325310614
 30
0.0
 11
308.8936888872
 21
65.5325310614
 31
0.0
  0
LINE
  5
C5
330
1F
100
AcDbEntity
  8
0
  6
Continuous
 62
     7
370
    25
100
AcDbLine
 10
319.8936888872
 20
143.3850714398
 30
0.0
 11
319.8936888872
 21
126.2440552885
 31
0.0
  0
LINE
  5
C6
330
1F
100
AcDbEntity
  8
0
  6
Continuous
 62
     7
370
    25
100
AcDbLine
 10
320.8936888872
 20
143.3850714398
 30
0.0
 11
319.8936888872
 21
143.3850714398
 31
0.0
  0
LINE
  5
C7
330
1F
100
AcDbEntity
  8
0
  6
Continuous
 62
     7
370
    25
100
AcDbLine
 10
319.8936888872
 20
91.2440552885
 30
0.0
 11
319.8936888872
 21
74.1030391371
 31
0.0
  0
LINE
  5
C8
330
1F
100
AcDbEntity
  8
0
  6
Continuous
 62
     7
370
    25
100
AcDbLine
 10
308.8936888872
 20
91.2440552885
 30
0.0
 11
319.8936888872
 21
91.2440552885
 31
0.0
  0
LINE
  5
C9
330
1F
100
AcDbEntity
  8
0
  6
Continuous
 62
     7
370
    25
100
AcDbLine
 10
308.8936888872
 20
91.2440552885
 30
0.0
 11
308.8936888872
 21
126.2440552885
 31
0.0
  0
LINE
  5
CA
330
1F
100
AcDbEntity
  8
0
  6
Continuous
 62
     7
370
    25
100
AcDbLine
 10
319.8936888872
 20
126.2440552885
 30
0.0
 11
308.8936888872
 21
126.2440552885
 31
0.0
  0
LINE
  5
CB
330
1F
100
AcDbEntity
  8
0
  6
Continuous
 62
     7
370
    25
100
AcDbLine
 10
308.8936888872
 20
65.5325310614
 30
0.0
 11
308.8936888872
 21
91.2440552885
 31
0.0
  0
LINE
  5
CC
330
1F
100
AcDbEntity
  8
0
  6
Continuous
 62
     7
370
    25
100
AcDbLine
 10
308.8936888872
 20
151.9555795155
 30
0.0
 11
319.8936888872
 21
151.9555795155
 31
0.0
  0
LINE
  5
CD
330
1F
100
AcDbEntity
  8
0
  6
Continuous
 62
     7
370
    25
100
AcDbLine
 10
308.8936888872
 20
126.2440552885
 30
0.0
 11
308.8936888872
 21
151.9555795155
 31
0.0
  0
LINE
  5
CE
330
1F
100
AcDbEntity
  8
0
  6
Continuous
 62
     7
370
    25
100
AcDbLine
 10
319.8936888872
 20
178.0260875912
 30
0.0
 11
319.8936888872
 21
169.4555795155
 31
0.0
  0
LINE
  5
CF
330
1F
100
AcDbEntity
  8
0
  6
Continuous
 62
     7
370
    25
100
AcDbLine
 10
320.8936888872
 20
178.0260875912
 30
0.0
 11
319.8936888872
 21
178.0260875912
 31
0.0
  0
LINE
  5
D0
330
1F
100
AcDbEntity
  8
0
  6
Continuous
 62
     7
370
    25
100
AcDbLine
 10
319.8936888872
 20
151.9555795155
 30
0.0
 11
319.8936888872
 21
143.3850714398
 31
0.0
  0
LINE
  5
D1
330
1F
100
AcDbEntity
  8
0
  6
Continuous
 62
     7
370
    25
100
AcDbLine
 10
319.8936888872
 20
169.4555795155
 30
0.0
 11
308.8936888872
 21
169.4555795155
 31
0.0
  0
LINE
  5
D2
330
1F
100
AcDbEntity
  8
0
  6
Continuous
 62
     7
370
    25
100
AcDbLine
 10
308.8936888872
 20
151.9555795155
 30
0.0
 11
308.8936888872
 21
169.4555795155
 31
0.0
  0
LINE
  5
D3
330
1F
100
AcDbEntity
  8
0
  6
Continuous
 62
     7
370
    25
100
AcDbLine
 10
308.8936888872
 20
46.2440552885
 30
0.0
 11
308.8936888872
 21
48.0325310614
 31
0.0
  0
LINE
  5
D4
330
1F
100
AcDbEntity
  8
0
  6
Continuous
 62
     7
370
    25
100
AcDbLine
 10
308.8936888872
 20
169.4555795155
 30
0.0
 11
308.8936888872
 21
171.2440552885
 31
0.0
  0
LINE
  5
D5
330
1F
100
AcDbEntity
  8
0
  6
Continuous
 62
     1
370
    25
100
AcDbLine
 10
373.3936888872
 20
108.7440552885
 30
0.0
 11
373.3936888872
 21
187.2440552885
 31
0.0
  0
LINE
  5
D6
330
1F
100
AcDbEntity
  8
0
  6
Continuous
 62
     1
370
    25
100
AcDbLine
 10
373.3936888872
 20
30.2440552885
 30
0.0
 11
373.3936888872
 21
108.7440552885
 31
0.0
  0
LINE
  5
D7
330
1F
100
AcDbEntity
  8
0
  6
Continuous
 62
     7
370
    25
100
AcDbLine
 10
-44.424864428
 20
187.2440552885
 30
0.0
 11
-96.924864428
 21
187.2440552885
 31
0.0
  0
LINE
  5
D8
330
1F
100
AcDbEntity
  8
0
  6
Continuous
 62
     7
370
    25
100
AcDbLine
 10
-96.924864428
 20
30.2440552885
 30
0.0
 11
-44.424864428
 21
30.2440552885
 31
0.0
  0
ARC
  5
D9
330
1F
100
AcDbEntity
  8
0
  6
Continuous
 62
     7
370
    25
100
AcDbCircle
 10
-96.924864428
 20
186.7440552885
 30
0.0
 40
0.5
100
AcDbArc
 50
90.0
 51
180.0
  0
ARC
  5
DA
330
1F
100
AcDbEntity
  8
0
  6
Continuous
 62
     7
370
    25
100
AcDbCircle
 10
-96.924864428
 20
30.7440552885
 30
0.0
 40
0.5000000000000142
100
AcDbArc
 50
180.0
 51
270.0
  0
LINE
  5
DB
330
1F
100
AcDbEntity
  8
0
  6
Continuous
 62
     7
370
    25
100
AcDbLine
 10
-97.424864428
 20
171.2440552885
 30
0.0
 11
-185.424864428
 21
171.2440552885
 31
0.0
  0
LINE
  5
DC
330
1F
100
AcDbEntity
  8
0
  6
Continuous
 62
     7
370
    25
100
AcDbLine
 10
-185.424864428
 20
46.2440552885
 30
0.0
 11
-97.424864428
 21
46.2440552885
 31
0.0
  0
LINE
  5
DD
330
1F
100
AcDbEntity
  8
0
  6
Continuous
 62
     7
370
    25
100
AcDbLine
 10
-43.424864428
 20
46.2440552885
 30
0.0
 11
-32.424864428
 21
46.2440552885
 31
0.0
  0
LINE
  5
DE
330
1F
100
AcDbEntity
  8
0
  6
Continuous
 62
     7
370
    25
100
AcDbLine
 10
-32.424864428
 20
171.2440552885
 30
0.0
 11
-43.424864428
 21
171.2440552885
 31
0.0
  0
LINE
  5
DF
330
1F
100
AcDbEntity
  8
0
  6
Continuous
 62
     7
370
    25
100
AcDbLine
 10
-44.424864428
 20
187.2440552885
 30
0.0
 11
-44.424864428
 21
30.2440552885
 31
0.0
  0
LINE
  5
E0
330
1F
100
AcDbEntity
  8
0
  6
Continuous
 62
     7
370
    25
100
AcDbLine
 10
-97.424864428
 20
186.7440552885
 30
0.0
 11
-97.424864428
 21
30.7440552885
 31
0.0
  0
LINE
  5
E1
330
1F
100
AcDbEntity
  8
0
  6
Continuous
 62
     7
370
    25
100
AcDbLine
 10
-185.424864428
 20
171.2440552885
 30
0.0
 11
-185.424864428
 21
46.2440552885
 31
0.0
  0
LINE
  5
E2
330
1F
100
AcDbEntity
  8
0
  6
Continuous
 62
     7
370
    25
100
AcDbLine
 10
-43.424864428
 20
39.4620229857
 30
0.0
 11
-43.424864428
 21
48.0325310614
 31
0.0
  0
LINE
  5
E3
330
1F
100
AcDbEntity
  8
0
  6
Continuous
 62
     7
370
    25
100
AcDbLine
 10
-44.424864428
 20
39.4620229857
 30
0.0
 11
-43.424864428
 21
39.4620229857
 31
0.0
  0
LINE
  5
E4
330
1F
100
AcDbEntity
  8
0
  6
Continuous
 62
     7
370
    25
100
AcDbLine
 10
-44.424864428
 20
74.1030391371
 30
0.0
 11
-43.424864428
 21
74.1030391371
 31
0.0
  0
LINE
  5
E5
330
1F
100
AcDbEntity
  8
0
  6
Continuous
 62
     7
370
    25
100
AcDbLine
 10
-43.424864428
 20
65.5325310614
 30
0.0
 11
-43.424864428
 21
74.1030391371
 31
0.0
  0
LINE
  5
E6
330
1F
100
AcDbEntity
  8
0
  6
Continuous
 62
     7
370
    25
100
AcDbLine
 10
-32.424864428
 20
65.5325310614
 30
0.0
 11
-43.424864428
 21
65.5325310614
 31
0.0
  0
LINE
  5
E7
330
1F
100
AcDbEntity
  8
0
  6
Continuous
 62
     7
370
    25
100
AcDbLine
 10
-32.424864428
 20
65.5325310614
 30
0.0
 11
-32.424864428
 21
48.0325310614
 31
0.0
  0
LINE
  5
E8
330
1F
100
AcDbEntity
  8
0
  6
Continuous
 62
     7
370
    25
100
AcDbLine
 10
-43.424864428
 20
48.0325310614
 30
0.0
 11
-32.424864428
 21
48.0325310614
 31
0.0
  0
LINE
  5
E9
330
1F
100
AcDbEntity
  8
0
  6
Continuous
 62
     7
370
    25
100
AcDbLine
 10
-32.424864428
 20
91.2440552885
 30
0.0
 11
-32.424864428
 21
65.5325310614
 31
0.0
  0
LINE
  5
EA
330
1F
100
AcDbEntity
  8
0
  6
Continuous
 62
     7
370
    25
100
AcDbLine
 10
-43.424864428
 20
91.2440552885
 30
0.0
 11
-32.424864428
 21
91.2440552885
 31
0.0
  0
LINE
  5
EB
330
1F
100
AcDbEntity
  8
0
  6
Continuous
 62
     7
370
    25
100
AcDbLine
 10
-43.424864428
 20
74.1030391371
 30
0.0
 11
-43.424864428
 21
91.2440552885
 31
0.0
  0
LINE
  5
EC
330
1F
100
AcDbEntity
  8
0
  6
Continuous
 62
     7
370
    25
100
AcDbLine
 10
-44.424864428
 20
143.3850714398
 30
0.0
 11
-43.424864428
 21
143.3850714398
 31
0.0
  0
LINE
  5
ED
330
1F
100
AcDbEntity
  8
0
  6
Continuous
 62
     7
370
    25
100
AcDbLine
 10
-43.424864428
 20
126.2440552885
 30
0.0
 11
-43.424864428
 21
143.3850714398
 31
0.0
  0
LINE
  5
EE
330
1F
100
AcDbEntity
  8
0
  6
Continuous
 62
     7
370
    25
100
AcDbLine
 10
-32.424864428
 20
126.2440552885
 30
0.0
 11
-43.424864428
 21
126.2440552885
 31
0.0
  0
LINE
  5
EF
330
1F
100
AcDbEntity
  8
0
  6
Continuous
 62
     7
370
    25
100
AcDbLine
 10
-32.424864428
 20
126.2440552885
 30
0.0
 11
-32.424864428
 21
91.2440552885
 31
0.0
  0
LINE
  5
F0
330
1F
100
AcDbEntity
  8
0
  6
Continuous
 62
     7
370
    25
100
AcDbLine
 10
-43.424864428
 20
151.9555795155
 30
0.0
 11
-32.424864428
 21
151.9555795155
 31
0.0
  0
LINE
  5
F1
330
1F
100
AcDbEntity
  8
0
  6
Continuous
 62
     7
370
    25
100
AcDbLine
 10
-32.424864428
 20
151.9555795155
 30
0.0
 11
-32.424864428
 21
126.2440552885
 31
0.0
  0
LINE
  5
F2
330
1F
100
AcDbEntity
  8
0
  6
Continuous
 62
     7
370
    25
100
AcDbLine
 10
-43.424864428
 20
143.3850714398
 30
0.0
 11
-43.424864428
 21
151.9555795155
 31
0.0
  0
LINE
  5
F3
330
1F
100
AcDbEntity
  8
0
  6
Continuous
 62
     7
370
    25
100
AcDbLine
 10
-44.424864428
 20
178.0260875912
 30
0.0
 11
-43.424864428
 21
178.0260875912
 31
0.0
  0
LINE
  5
F4
330
1F
100
AcDbEntity
  8
0
  6
Continuous
 62
     7
370
    25
100
AcDbLine
 10
-43.424864428
 20
169.4555795155
 30
0.0
 11
-43.424864428
 21
178.0260875912
 31
0.0
  0
LINE
  5
F5
330
1F
100
AcDbEntity
  8
0
  6
Continuous
 62
     7
370
    25
100
AcDbLine
 10
-32.424864428
 20
169.4555795155
 30
0.0
 11
-43.424864428
 21
169.4555795155
 31
0.0
  0
LINE
  5
F6
330
1F
100
AcDbEntity
  8
0
  6
Continuous
 62
     7
370
    25
100
AcDbLine
 10
-32.424864428
 20
169.4555795155
 30
0.0
 11
-32.424864428
 21
151.9555795155
 31
0.0
  0
LINE
  5
F7
330
1F
100
AcDbEntity
  8
0
  6
Continuous
 62
     7
370
    25
100
AcDbLine
 10
-32.424864428
 20
48.0325310614
 30
0.0
 11
-32.424864428
 21
46.2440552885
 31
0.0
  0
LINE
  5
F8
330
1F
100
AcDbEntity
  8
0
  6
Continuous
 62
     7
370
    25
100
AcDbLine
 10
-32.424864428
 20
171.2440552885
 30
0.0
 11
-32.424864428
 21
169.4555795155
 31
0.0
  0
LINE
  5
F9
330
1F
100
AcDbEntity
  8
0
  6
Continuous
 62
     1
370
    25
100
AcDbLine
 10
-96.924864428
 20
187.2440552885
 30
0.0
 11
-96.924864428
 21
30.2440552885
 31
0.0
  0
LINE
  5
FA
330
1F
100
AcDbEntity
  8
0
  6
Continuous
 62
     7
370
    25
100
AcDbLine
 10
432.0500413433
 20
-73.2166395492
 30
0.0
 11
369.8246445989
 21
-37.294682629
 31
0.0
  0
LINE
  5
FB
330
1F
100
AcDbEntity
  8
0
  6
Continuous
 62
     7
370
    25
100
AcDbLine
 10
307.3297238091
 20
-145.5507904266
 30
0.0
 11
369.5551205535
 21
-181.4727473468
 31
0.0
  0
SPLINE
  5
FC
330
1F
100
AcDbEntity
  8
0
  6
Continuous
 62
     7
370
    25
100
AcDbSpline
210
0.0
220
0.0
230
1.0
 70
     8
 71
     3
 72
    16
 73
    12
 74
     0
 42
0.00000001
 43
0.00000001
 40
0.0
 40
0.0
 40
0.0
 40
0.0
 40
0.0262907040863907
 40
0.1490395744158825
 40
0.2718865316572394
 40
0.3948239414937242
 40
0.5178404616100399
 40
0.6409229151612555
 40
0.7640578092163419
 40
0.8872324087158141
 40
1.0
 40
1.0
 40
1.0
 40
1.0
 10
428.1828497653957
 20
-55.93900709002825
 30
0.0
 10
428.0243599286107
 20
-55.92372155160847
 30
0.0
 10
427.1258956750074
 20
-55.83706924540493
 30
0.0
 10
425.4321176537404
 20
-55.82824882162865
 30
0.0
 10
423.1044026325171
 20
-55.92001632437388
 30
0.0
 10
420.7251205684834
 20
-56.17676844861566
 30
0.0
 10
418.3055024916555
 20
-56.58185834181911
 30
0.0
 10
415.8492557557624
 20
-57.13772903016104
 30
0.0
 10
413.3616855929487
 20
-57.846309579525
 30
0.0
 10
410.9206821183171
 20
-58.66648630781321
 30
0.0
 10
409.3016695727945
 20
-59.32354172385438
 30
0.0
 10
408.527869243099
 20
-59.63757863417168
 30
0.0
  0
SPLINE
  5
FD
330
1F
100
AcDbEntity
  8
0
  6
Continuous
 62
     7
370
    25
100
AcDbSpline
210
0.0
220
0.0
230
1.0
 70
     8
 71
     3
 72
    16
 73
    12
 74
     0
 42
0.00000001
 43
0.00000001
 40
0.0
 40
0.0
 40
0.0
 40
0.0
 40
0.0670756787827011
 40
0.1926263739816277
 40
0.318162692208048
 40
0.4436752744247836
 40
0.5691528755710891
 40
0.6945825499434286
 40
0.819950157541909
 40
0.9452412888775124
 40
1.0
 40
1.0
 40
1.0
 40
1.0
 10
346.0448271708918
 20
-167.9005438694319
 30
0.0
 10
346.1052260870085
 20
-168.3884407284925
 30
0.0
 10
346.2786782892841
 20
-169.7895715786524
 30
0.0
 10
346.6933875326599
 20
-172.0087751121695
 30
0.0
 10
347.2787135342711
 20
-174.5577106347252
 30
0.0
 10
347.9845819838312
 20
-177.003204231409
 30
0.0
 10
348.8027357432689
 20
-179.3446104264675
 30
0.0
 10
349.73133478617
 20
-181.5778564819518
 30
0.0
 10
350.7755970800558
 20
-183.6891848171826
 30
0.0
 10
351.692859794587
 20
-185.3298842174739
 30
0.0
 10
352.2992943555452
 20
-186.2200621756414
 30
0.0
 10
352.4837298123323
 20
-186.4907927522052
 30
0.0
  0
LINE
  5
FE
330
1F
100
AcDbEntity
  8
0
  6
Continuous
 62
     7
370
    25
100
AcDbLine
 10
477.5260506073
 20
-80.9946727144
 30
0.0
 11
440.402944595
 21
-59.563959779
 31
0.0
  0
LINE
  5
FF
330
1F
100
AcDbEntity
  8
0
  6
Continuous
 62
     7
370
    25
100
AcDbLine
 10
361.9093240831
 20
-195.5336311728
 30
0.0
 11
399.0324300953
 21
-216.9643441082
 31
0.0
  0
LWPOLYLINE
  5
100
330
1F
100
AcDbEntity
  8
0
  6
Continuous
 62
     7
370
    25
100
AcDbPolyline
 90
      105
 70
   128
 43
0.0
 10
302.4440276854
 20
-112.2819637848
 10
302.5099506702
 20
-109.7246002325
 10
302.7074790788
 20
-107.1004551642
 10
303.0358921514
 20
-104.4191038008
 10
303.4939915445
 20
-101.6903301026
 10
304.0801057029
 20
-98.924091069
 10
304.7920959596
 20
-96.1304804062
 10
305.6273643395
 20
-93.3196916965
 10
306.5828630387
 20
-90.5019812031
 10
307.6551055462
 20
-87.687630446
 10
308.8401793654
 20
-84.8869086859
 10
310.1337602903
 20
-82.1100354529
 10
311.5311281845
 20
-79.3671432561
 10
313.027184204
 20
-76.6682406118
 10
314.6164694027
 20
-74.0231755231
 10
316.2931846513
 20
-71.4415995455
 10
318.0512117977
 20
-68.9329325699
 10
319.8841359913
 20
-66.5063284499
 10
321.7852690907
 20
-64.170641601
 10
323.7476740673
 20
-61.934394691
 10
325.7641903182
 20
-59.8057475425
 10
327.8274597943
 20
-57.792467358
 10
329.9299538489
 20
-55.9019003787
 10
332.0640007094
 20
-54.1409450783
 10
334.2218134701
 20
-52.5160269919
 10
336.3955185063
 20
-51.0330752692
 10
338.577184204
 20
-49.6975010404
 10
340.7588499017
 20
-48.5141776709
 10
342.9325549379
 20
-47.4874229794
 10
345.0903676986
 20
-46.6209834824
 10
347.2244145591
 20
-45.9180207236
 10
349.3269086137
 20
-45.381099738
 10
351.3901780898
 20
-45.0121796919
 10
353.4066943407
 20
-44.8126067347
 10
355.3690993173
 20
-44.7831090864
 10
357.2702324167
 20
-44.9237943807
 10
359.1031566104
 20
-45.2341492723
 10
360.8611837567
 20
-45.7130413097
 10
362.5378990053
 20
-46.358723068
 10
364.127184204
 20
-47.1688385243
 10
365.6232402236
 20
-48.1404316552
 10
367.0206081177
 20
-49.2699572228
 10
368.3141890427
 20
-50.5532937108
 10
369.4992628618
 20
-51.9857583634
 10
370.5715053693
 20
-53.5621242726
 10
371.5270040686
 20
-55.27663945
 10
372.3622724484
 20
-57.1230478157
 10
373.0742627052
 20
-59.0946120259
 10
373.6603768635
 20
-61.1841380565
 10
374.1184762566
 20
-63.3840014536
 10
374.4468893292
 20
-65.6861751543
 10
374.6444177378
 20
-68.0822587765
 10
374.7103407226
 20
-70.5635092707
 10
374.6444177378
 20
-73.1208728231
 10
374.4468893292
 20
-75.7450178914
 10
374.1184762566
 20
-78.4263692548
 10
373.6603768635
 20
-81.1551429529
 10
373.0742627052
 20
-83.9213819865
 10
372.3622724484
 20
-86.7149926494
 10
371.5270040686
 20
-89.5257813591
 10
370.5715053693
 20
-92.3434918525
 10
369.4992628618
 20
-95.1578426096
 10
368.3141890427
 20
-97.9585643696
 10
367.0206081177
 20
-100.7354376027
 10
365.6232402236
 20
-103.4783297994
 10
364.127184204
 20
-106.1772324437
 10
362.5378990053
 20
-108.8222975325
 10
360.8611837567
 20
-111.4038735101
 10
359.1031566104
 20
-113.9125404857
 10
357.2702324167
 20
-116.3391446056
 10
355.3690993173
 20
-118.6748314546
 10
353.4066943407
 20
-120.9110783645
 10
351.3901780898
 20
-123.039725513
 10
349.3269086137
 20
-125.0530056975
 10
347.2244145591
 20
-126.9435726769
 10
345.0903676986
 20
-128.7045279772
 10
342.9325549379
 20
-130.3294460637
 10
340.7588499017
 20
-131.8123977863
 10
338.577184204
 20
-133.1479720151
 10
336.3955185063
 20
-134.3312953846
 10
334.2218134701
 20
-135.3580500762
 10
332.0640007094
 20
-136.2244895732
 10
329.9299538489
 20
-136.927452332
 10
327.8274597943
 20
-137.4643733176
 10
325.7641903182
 20
-137.8332933636
 10
323.7476740673
 20
-138.0328663208
 10
321.7852690907
 20
-138.0623639691
 10
319.8841359913
 20
-137.9216786748
 10
318.0512117977
 20
-137.6113237833
 10
316.2931846513
 20
-137.1324317458
 10
314.6164694027
 20
-136.4867499876
 10
313.027184204
 20
-135.6766345313
 10
311.5311281845
 20
-134.7050414003
 10
310.1337602903
 20
-133.5755158327
 10
308.8401793654
 20
-132.2921793448
 10
307.6551055462
 20
-130.8597146921
 10
306.5828630387
 20
-129.283348783
 10
305.6273643395
 20
-127.5688336056
 10
304.7920959596
 20
-125.7224252398
 10
304.0801057029
 20
-123.7508610297
 10
303.4939915445
 20
-121.6613349991
 10
303.0358921514
 20
-119.4614716019
 10
302.7074790788
 20
-117.1592979012
 10
302.5099506702
 20
-114.7632142791
 10
302.4440276854
 20
-112.2819637848
  0
LWPOLYLINE
  5
101
330
1F
100
AcDbEntity
  8
0
  6
Continuous
 62
     7
370
    25
100
AcDbPolyline
 90
      116
 70
   128
 43
0.0
 10
294.3830103798
 20
-116.9354900222
 10
294.4489567721
 20
-114.1105041735
 10
294.6465991389
 20
-111.217809109
 10
294.9753476378
 20
-108.2660377678
 10
295.434221154
 20
-105.2639993957
 10
296.0218502287
 20
-102.2206532551
 10
296.7364811456
 20
-99.1450818871
 10
297.5759811653
 20
-96.0464640053
 10
298.5378448897
 20
-92.9340471035
 10
299.6192017395
 20
-89.8171198569
 10
300.8168245207
 20
-86.7049844016
 10
302.1271390564
 20
-83.6069285728
 10
303.546234853
 20
-80.5321981868
 10
305.0698767707
 20
-77.4899694476
 10
306.6935176634
 20
-74.4893215614
 10
308.4123119484
 20
-71.5392096409
 10
310.221130068
 20
-68.6484379795
 10
312.1145737981
 20
-65.8256337761
 10
314.0869923583
 20
-63.0792213878
 10
316.1324992765
 20
-60.4173971887
 10
318.2449899561
 20
-57.8481051084
 10
320.4181598945
 20
-55.3790129241
 10
322.6455234986
 20
-53.0174893776
 10
324.92043344
 20
-50.7705821831
 10
327.2361004932
 20
-48.6449969948
 10
329.5856137976
 20
-46.6470773945
 10
331.9619614821
 20
-44.7827859593
 10
334.3580515912
 20
-43.0576864678
 10
336.7667332503
 20
-41.4769272948
 10
339.1808180066
 20
-40.0452260469
 10
341.5931012824
 20
-38.7668554835
 10
343.9963838763
 20
-37.6456307646
 10
346.3834934484
 20
-36.6848980656
 10
348.7473059256
 20
-35.8875245905
 10
351.0807667624
 20
-35.255890015
 10
353.3769119945
 20
-34.7918793849
 10
355.628889022
 20
-34.4968774905
 10
357.8299770605
 20
-34.3717647333
 10
359.973607198
 20
-34.4169144988
 10
362.0533819999
 20
-34.6321920426
 10
364.0630946005
 20
-35.0169548917
 10
365.9967472277
 20
-35.5700547627
 10
367.848569102
 20
-36.289840988
 10
369.6130336591
 20
-37.1741654428
 10
371.2848750433
 20
-38.2203889553
 10
372.8591038228
 20
-39.4253891832
 10
374.3310218801
 20
-40.7855699324
 10
375.6962364334
 20
-42.2968718888
 10
376.9506731457
 20
-43.9547847335
 10
378.0905882849
 20
-45.7543606028
 10
379.1125798962
 20
-47.6902288552
 10
380.013597955
 20
-49.7566120988
 10
380.7909534692
 20
-51.947343434
 10
381.4423265045
 20
-54.2558848573
 10
381.9657731076
 20
-56.6753467738
 10
382.3597311083
 20
-59.1985085583
 10
382.6230247809
 20
-61.8178401043
 10
382.7548683538
 20
-64.525524297
 10
382.7548683538
 20
-67.3134803424
 10
382.6230247809
 20
-70.1733878841
 10
382.3597311083
 20
-73.0967118339
 10
381.9657731076
 20
-76.0747278441
 10
381.4423265045
 20
-79.0985483446
 10
380.7909534692
 20
-82.1591490664
 10
380.013597955
 20
-85.2473959741
 10
379.1125798962
 20
-88.3540725251
 10
378.0905882849
 20
-91.4699071756
 10
376.9506731457
 20
-94.5856010503
 10
375.6962364334
 20
-97.6918556942
 10
374.3310218801
 20
-100.7794008225
 10
372.8591038228
 20
-103.8390219871
 10
371.2848750433
 20
-106.8615880759
 10
369.6130336591
 20
-109.8380785636
 10
367.848569102
 20
-112.7596104328
 10
365.9967472277
 20
-115.6174646842
 10
364.0630946005
 20
-118.4031123574
 10
362.0533819999
 20
-121.1082399849
 10
359.973607198
 20
-123.7247744026
 10
357.8299770605
 20
-126.2449068436
 10
355.628889022
 20
-128.661116242
 10
353.3769119945
 20
-130.9661916793
 10
351.0807667624
 20
-133.1532539046
 10
348.7473059256
 20
-135.2157758645
 10
346.3834934484
 20
-137.1476021828
 10
343.9963838763
 20
-138.9429675306
 10
341.5931012824
 20
-140.596513832
 10
339.1808180066
 20
-142.1033062549
 10
336.7667332503
 20
-143.4588479386
 10
334.3580515912
 20
-144.6590934138
 10
331.9619614821
 20
-145.7004606763
 10
329.5856137976
 20
-146.579841877
 10
327.2361004932
 20
-147.2946125967
 10
324.92043344
 20
-147.8426396787
 10
322.6455234986
 20
-148.2222875946
 10
320.4181598945
 20
-148.4324233261
 10
318.2449899561
 20
-148.4724197453
 10
316.1324992765
 20
-148.3421574873
 10
314.0869923583
 20
-148.042025306
 10
312.1145737981
 20
-147.5729189135
 10
310.221130068
 20
-146.9362383079
 10
308.4123119484
 20
-146.1338835943
 10
306.6935176634
 20
-145.1682493144
 10
305.0698767707
 20
-144.0422173006
 10
303.546234853
 20
-142.7591480749
 10
302.1271390564
 20
-141.3228708201
 10
300.8168245207
 20
-139.7376719521
 10
299.6192017395
 20
-138.0082823275
 10
298.5378448897
 20
-136.1398631244
 10
297.5759811653
 20
-134.1379904402
 10
296.7364811456
 20
-132.0086386497
 10
296.0218502287
 20
-129.7581625757
 10
295.434221154
 20
-127.3932785232
 10
294.9753476378
 20
-124.9210442358
 10
294.6465991389
 20
-122.3488378321
 10
294.4489567721
 20
-119.6843357872
 10
294.3830103798
 20
-116.9354900222
  0
LWPOLYLINE
  5
102
330
1F
100
AcDbEntity
  8
0
  6
Continuous
 62
     7
370
    25
100
AcDbPolyline
 90
       59
 70
   128
 43
0.0
 10
432.0500413433
 20
-73.2166395492
 10
433.5102717877
 20
-74.1423458755
 10
435.0845005672
 20
-75.3473461034
 10
436.5564186245
 20
-76.7075268526
 10
437.9216331778
 20
-78.218828809
 10
439.1760698901
 20
-79.8767416537
 10
440.3159850293
 20
-81.676317523
 10
441.3379766406
 20
-83.6121857754
 10
442.2389946994
 20
-85.678569019
 10
443.0163502136
 20
-87.8693003542
 10
443.6677232489
 20
-90.1778417775
 10
444.191169852
 20
-92.597303694
 10
444.5851278527
 20
-95.1204654785
 10
444.8484215254
 20
-97.7397970245
 10
444.9802650982
 20
-100.4474812172
 10
444.9802650982
 20
-103.2354372626
 10
444.8484215254
 20
-106.0953448043
 10
444.5851278527
 20
-109.0186687541
 10
444.191169852
 20
-111.9966847643
 10
443.6677232489
 20
-115.0205052648
 10
443.0163502136
 20
-118.0811059866
 10
442.2389946994
 20
-121.1693528943
 10
441.3379766406
 20
-124.2760294453
 10
440.3159850293
 20
-127.3918640958
 10
439.1760698901
 20
-130.5075579705
 10
437.9216331778
 20
-133.6138126144
 10
436.5564186245
 20
-136.7013577427
 10
435.0845005672
 20
-139.7609789073
 10
433.5102717877
 20
-142.7835449961
 10
431.8384304035
 20
-145.7600354838
 10
430.0739658464
 20
-148.681567353
 10
428.2221439721
 20
-151.5394216044
 10
426.2884913449
 20
-154.3250692776
 10
424.2787787443
 20
-157.0301969051
 10
422.1990039425
 20
-159.6467313228
 10
420.0553738049
 20
-162.1668637638
 10
417.8542857664
 20
-164.5830731622
 10
415.6023087389
 20
-166.8881485995
 10
413.3061635068
 20
-169.0752108248
 10
410.97270267
 20
-171.1377327847
 10
408.6088901928
 20
-173.069559103
 10
406.2217806207
 20
-174.8649244508
 10
403.8184980268
 20
-176.5184707522
 10
401.406214751
 20
-178.0252631751
 10
398.9921299947
 20
-179.3808048588
 10
396.5834483356
 20
-180.581050334
 10
394.1873582265
 20
-181.6224175965
 10
391.811010542
 20
-182.5017987972
 10
389.4614972376
 20
-183.2165695169
 10
387.1458301844
 20
-183.7645965989
 10
384.8709202431
 20
-184.1442445148
 10
382.643556639
 20
-184.3543802463
 10
380.4703867005
 20
-184.3943766655
 10
378.357896021
 20
-184.2641144075
 10
376.3123891028
 20
-183.9639822262
 10
374.3399705425
 20
-183.4948758337
 10
372.4465268124
 20
-182.8581952281
 10
370.6377086928
 20
-182.0558405145
 10
369.5551205535
 20
-181.4727473468
  0
ARC
  5
103
330
1F
100
AcDbEntity
  8
0
  6
Continuous
 62
     7
370
    25
100
AcDbCircle
 10
426.6906490707
 20
-83.3289140245
 30
0.0
 40
27.40865534238638
100
AcDbArc
 50
32.5070994855
 51
86.5809229787
  0
ARC
  5
104
330
1F
100
AcDbEntity
  8
0
  6
Continuous
 62
     7
370
    25
100
AcDbCircle
 10
375.606029097
 20
-171.8130298887
 30
0.0
 40
27.36988686286156
100
AcDbArc
 50
212.7179889327
 51
267.6489195687
  0
LWPOLYLINE
  5
105
330
1F
100
AcDbEntity
  8
0
  6
Continuous
 62
     7
370
    25
100
AcDbPolyline
 90
       66
 70
   128
 43
0.0
 10
477.5260506073
 20
-80.9946727144
 10
478.7057109127
 20
-81.7178962366
 10
480.5097056004
 20
-83.0014469547
 10
482.2135342902
 20
-84.4414903452
 10
483.8131556888
 20
-86.0346107844
 10
485.3047756708
 20
-87.7770295664
 10
486.6848562785
 20
-89.6646138665
 10
487.9501241132
 20
-91.6928865433
 10
489.0975780993
 20
-93.857036758
 10
490.1244966028
 20
-96.1519313855
 10
491.0284438863
 20
-98.5721271891
 10
491.807275887
 20
-101.111883732
 10
492.4591453011
 20
-103.7651769921
 10
492.9825059667
 20
-106.525713651
 10
493.3761165299
 20
-109.3869460206
 10
493.63904339
 20
-112.3420875741
 10
493.7706629135
 20
-115.3841290419
 10
493.7706629135
 20
-118.505855038
 10
493.63904339
 20
-121.6998611731
 10
493.3761165299
 20
-124.9585716175
 10
492.9825059667
 20
-128.2742570702
 10
492.4591453011
 20
-131.6390530915
 10
491.807275887
 20
-135.0449787569
 10
491.0284438863
 20
-138.4839555873
 10
490.1244966028
 20
-141.9478267093
 10
489.0975780993
 20
-145.4283762035
 10
487.9501241132
 20
-148.9173485909
 10
486.6848562785
 20
-152.4064684146
 10
485.3047756708
 20
-155.8874598678
 10
483.8131556888
 20
-159.3520664233
 10
482.2135342902
 20
-162.7920704171
 10
480.5097056004
 20
-166.19931254
 10
478.7057109127
 20
-169.5657111899
 10
476.8058291031
 20
-172.8832816412
 10
474.8145664816
 20
-176.1441549833
 10
472.736646103
 20
-179.340596785
 10
470.5769965648
 20
-182.4650254394
 10
468.3407403172
 20
-185.5100301469
 10
466.0331815129
 20
-188.4683884929
 10
463.6597934265
 20
-191.333083578
 10
461.2262054722
 20
-194.0973206622
 10
458.738189852
 20
-196.7545432804
 10
456.2016478638
 20
-199.2984487942
 10
453.6225959051
 20
-201.7230033406
 10
451.0071512023
 20
-204.0224561444
 10
448.361517301
 20
-206.1913531573
 10
445.6919693528
 20
-208.2245499953
 10
443.0048392303
 20
-210.1172241402
 10
440.3065005094
 20
-211.864886378
 10
437.6033533514
 20
-213.4633914469
 10
434.9018093226
 20
-214.9089478695
 10
432.2082761871
 20
-216.1981269458
 10
429.5291427079
 20
-217.3278708853
 10
426.8707634936
 20
-218.2955000602
 10
424.2394439259
 20
-219.0987193611
 10
421.6414252042
 20
-219.7356236406
 10
419.0828695419
 20
-220.2047022319
 10
416.5698455503
 20
-220.5048425326
 10
414.1083138447
 20
-220.635332643
 10
411.7041129063
 20
-220.5958630549
 10
409.3629452341
 20
-220.386527386
 10
407.0903638193
 20
-220.0078221572
 10
404.8917589737
 20
-219.4606456155
 10
402.7723455453
 20
-218.7462956032
 10
400.7371505485
 20
-217.8664664797
 10
399.0324300953
 20
-216.9643441082
  0
LINE
  5
106
330
1F
100
AcDbEntity
  8
0
  6
Continuous
 62
     7
370
    25
100
AcDbLine
 10
478.6942427858
 20
-170.729294539
 30
0.0
 11
478.2111411215
 21
-170.4504058845
 31
0.0
  0
LINE
  5
107
330
1F
100
AcDbEntity
  8
0
  6
Continuous
 62
     7
370
    25
100
AcDbLine
 10
478.6942427858
 20
-170.729294539
 30
0.0
 11
476.3563412131
 21
-173.6376218695
 31
0.0
  0
ARC
  5
108
330
1F
100
AcDbEntity
  8
0
  6
Continuous
 62
     7
370
    25
100
AcDbCircle
 10
388.7778619281
 20
-120.0714664254
 30
0.0
 40
103.2045110241774
100
AcDbArc
 50
330.6036026925
 51
342.8950021179
  0
LWPOLYLINE
  5
109
330
1F
100
AcDbEntity
  8
0
  6
Continuous
 62
     1
370
    25
100
AcDbPolyline
 90
       93
 70
   128
 43
0.0
 10
408.7149607477
 20
-59.7455842608
 10
410.8206395736
 20
-58.9306510699
 10
413.4494223035
 20
-58.0506055167
 10
416.0482081229
 20
-57.3349178844
 10
418.6108329991
 20
-56.785285705
 10
421.1312186688
 20
-56.4030126452
 10
423.6033870558
 20
-56.1890054145
 10
426.0214744499
 20
-56.1437716144
 10
428.3797454147
 20
-56.2674185345
 10
430.6726063922
 20
-56.559652898
 10
432.8946189694
 20
-57.0197815572
 10
435.0405127781
 20
-57.6467131378
 10
437.1051979951
 20
-58.4389606273
 10
439.0837774152
 20
-59.3946449023
 10
440.9715580667
 20
-60.5114991852
 10
442.7640623424
 20
-61.7868744211
 10
444.4570386202
 20
-63.2177455607
 10
446.0464713474
 20
-64.8007187359
 10
447.5285905653
 20
-66.5320393091
 10
448.8998808506
 20
-68.4076007793
 10
450.1570896545
 20
-70.4229545218
 10
451.2972350165
 20
-72.5733203403
 10
452.3176126378
 20
-74.8535978045
 10
453.2158022953
 20
-77.2583783483
 10
453.9896735826
 20
-79.7819580979
 10
454.6373909623
 20
-82.4183514009
 10
455.1574181204
 20
-85.1613050237
 10
455.5485216099
 20
-88.0043129834
 10
455.8097737767
 20
-90.9406319791
 10
455.9405549593
 20
-93.9632973867
 10
455.9405549593
 20
-97.0651397777
 10
455.8097737767
 20
-100.2388019247
 10
455.5485216099
 20
-103.4767562516
 10
455.1574181204
 20
-106.7713226887
 10
454.6373909623
 20
-110.1146868881
 10
453.9896735826
 20
-113.4989187596
 10
453.2158022953
 20
-116.9159912789
 10
452.3176126378
 20
-120.3577995276
 10
451.2972350165
 20
-123.8161799167
 10
450.1570896545
 20
-127.2829295501
 10
448.8998808506
 20
-130.7498256806
 10
447.5285905653
 20
-134.2086452136
 10
446.0464713474
 20
-137.6511842115
 10
444.4570386202
 20
-141.0692773519
 10
442.7640623424
 20
-144.4548172956
 10
440.9715580667
 20
-147.7997739159
 10
439.0837774152
 20
-151.0962133452
 10
437.1051979951
 20
-154.3363167935
 10
435.0405127781
 20
-157.5123990932
 10
432.8946189694
 20
-160.6169269281
 10
430.6726063922
 20
-163.6425367012
 10
428.3797454147
 20
-166.5820520004
 10
426.0214744499
 20
-169.42850062
 10
423.6033870558
 20
-172.1751310986
 10
421.1312186688
 20
-174.8154287319
 10
418.6108329991
 20
-177.3431310259
 10
416.0482081229
 20
-179.7522425498
 10
413.4494223035
 20
-182.0370491573
 10
410.8206395736
 20
-184.1921315395
 10
408.1680951155
 20
-186.2123780792
 10
405.4980804715
 20
-188.0929969748
 10
402.8169286214
 20
-189.829527606
 10
400.1309989612
 20
-191.4178511139
 10
397.4466622193
 20
-192.8542001708
 10
394.7702853458
 20
-194.1351679154
 10
392.108216411
 20
-195.2577160336
 10
389.4667695484
 20
-196.2191819654
 10
386.852209978
 20
-197.0172852198
 10
384.2707391462
 20
-197.6501327841
 10
381.7284800168
 20
-198.1162236137
 10
379.2314625474
 20
-198.4144521927
 10
376.7856093877
 20
-198.5441111559
 10
374.3967218311
 20
-198.5048929665
 10
372.0704660549
 20
-198.2968906457
 10
369.8123596809
 20
-197.9205975522
 10
367.6277586879
 20
-197.3769062114
 10
365.5218447081
 20
-196.6671061992
 10
363.4996127368
 20
-195.7928810828
 10
361.5658592847
 20
-194.7563044276
 10
359.7251710016
 20
-193.559834879
 10
357.9819137965
 20
-192.2063103304
 10
356.340222483
 20
-190.6989411925
 10
354.8039909715
 20
-189.0413027786
 10
353.3768630334
 20
-187.2373268236
 10
352.0622236586
 20
-185.2912921593
 10
350.8631910263
 20
-183.2078145649
 10
349.7826091096
 20
-180.991835819
 10
348.8230409293
 20
-178.6486119785
 10
347.9867624751
 20
-176.1837009113
 10
347.2757573071
 20
-173.6029491143
 10
346.6917118511
 20
-170.9124778455
 10
346.2360113984
 20
-168.1186686056
 10
346.2200399579
 20
-168.0016920584
  0
LWPOLYLINE
  5
10A
330
1F
100
AcDbEntity
  8
0
  6
Continuous
 62
     1
370
    25
100
AcDbPolyline
 90
       55
 70
   128
 43
0.0
 10
449.8050495787
 20
-68.5993900392
 10
450.8270181009
 20
-70.2621736079
 10
451.974472087
 20
-72.4263238227
 10
453.0013905905
 20
-74.7212184501
 10
453.905337874
 20
-77.1414142538
 10
454.6841698747
 20
-79.6811707967
 10
455.3360392889
 20
-82.3344640567
 10
455.8593999544
 20
-85.0950007156
 10
456.2530105176
 20
-87.9562330853
 10
456.5159373777
 20
-90.9113746387
 10
456.6475569012
 20
-93.9534161066
 10
456.6475569012
 20
-97.0751421027
 10
456.5159373777
 20
-100.2691482377
 10
456.2530105176
 20
-103.5278586822
 10
455.8593999544
 20
-106.8435441348
 10
455.3360392889
 20
-110.2083401561
 10
454.6841698747
 20
-113.6142658216
 10
453.905337874
 20
-117.0532426519
 10
453.0013905905
 20
-120.517113774
 10
451.974472087
 20
-123.9976632681
 10
450.8270181009
 20
-127.4866356556
 10
449.5617502662
 20
-130.9757554793
 10
448.1816696585
 20
-134.4567469324
 10
446.6900496765
 20
-137.9213534879
 10
445.0904282779
 20
-141.3613574818
 10
443.3865995881
 20
-144.7685996046
 10
441.5826049004
 20
-148.1349982545
 10
439.6827230909
 20
-151.4525687058
 10
437.6914604693
 20
-154.713442048
 10
435.6135400907
 20
-157.9098838497
 10
433.4538905525
 20
-161.034312504
 10
431.2176343049
 20
-164.0793172116
 10
428.9100755006
 20
-167.0376755575
 10
426.5366874142
 20
-169.9023706427
 10
424.1030994599
 20
-172.6666077269
 10
421.6150838397
 20
-175.3238303451
 10
419.0785418515
 20
-177.8677358588
 10
416.4994898928
 20
-180.2922904053
 10
413.88404519
 20
-182.591743209
 10
411.2384112887
 20
-184.7606402219
 10
408.5688633405
 20
-186.79383706
 10
405.881733218
 20
-188.6865112048
 10
403.1833944971
 20
-190.4341734426
 10
400.4802473391
 20
-192.0326785115
 10
397.7787033103
 20
-193.4782349342
 10
395.0851701748
 20
-194.7674140104
 10
392.4060366956
 20
-195.8971579499
 10
389.7476574813
 20
-196.8647871249
 10
387.1163379136
 20
-197.6680064258
 10
384.518319192
 20
-198.3049107052
 10
381.9597635296
 20
-198.7739892966
 10
379.446739538
 20
-199.0741295972
 10
376.9852078324
 20
-199.2046197076
 10
374.581006894
 20
-199.1651501196
 10
374.4832457247
 20
-199.1598773191
  0
LINE
  5
10B
330
1F
100
AcDbEntity
  8
0
  6
Continuous
 62
     7
370
    25
100
AcDbLine
 10
61.3323425481
 20
-55.9395992988
 30
0.0
 11
61.3323425481
 21
-108.4395992988
 31
0.0
  0
LINE
  5
10C
330
1F
100
AcDbEntity
  8
0
  6
Continuous
 62
     7
370
    25
100
AcDbLine
 10
218.3323425481
 20
-108.4395992988
 30
0.0
 11
218.3323425481
 21
-55.9395992988
 31
0.0
  0
ARC
  5
10D
330
1F
100
AcDbEntity
  8
0
  6
Continuous
 62
     7
370
    25
100
AcDbCircle
 10
61.8323425481
 20
-108.4395992988
 30
0.0
 40
0.5
100
AcDbArc
 50
180.0
 51
270.0
  0
ARC
  5
10E
330
1F
100
AcDbEntity
  8
0
  6
Continuous
 62
     7
370
    25
100
AcDbCircle
 10
217.8323425481
 20
-108.4395992988
 30
0.0
 40
0.5000000000000284
100
AcDbArc
 50
270.0
 51
0.0
  0
LINE
  5
10F
330
1F
100
AcDbEntity
  8
0
  6
Continuous
 62
     7
370
    25
100
AcDbLine
 10
77.3323425481
 20
-108.9395992988
 30
0.0
 11
77.3323425481
 21
-196.9395992988
 31
0.0
  0
LINE
  5
110
330
1F
100
AcDbEntity
  8
0
  6
Continuous
 62
     7
370
    25
100
AcDbLine
 10
202.3323425481
 20
-196.9395992988
 30
0.0
 11
202.3323425481
 21
-108.9395992988
 31
0.0
  0
LINE
  5
111
330
1F
100
AcDbEntity
  8
0
  6
Continuous
 62
     7
370
    25
100
AcDbLine
 10
61.3323425481
 20
-55.9395992988
 30
0.0
 11
218.3323425481
 21
-55.9395992988
 31
0.0
  0
LINE
  5
112
330
1F
100
AcDbEntity
  8
0
  6
Continuous
 62
     7
370
    25
100
AcDbLine
 10
61.8323425481
 20
-108.9395992988
 30
0.0
 11
217.8323425469
 21
-108.9395992988
 31
0.0
  0
LINE
  5
113
330
1F
100
AcDbEntity
  8
0
  6
Continuous
 62
     7
370
    25
100
AcDbLine
 10
139.8323425481
 20
-54.9395992988
 30
0.0
 11
124.9877871143
 21
-54.9395992988
 31
0.0
  0
LINE
  5
114
330
1F
100
AcDbEntity
  8
0
  6
Continuous
 62
     7
370
    25
100
AcDbLine
 10
139.8323425481
 20
-55.9395992988
 30
0.0
 11
139.8323425481
 21
-54.9395992988
 31
0.0
  0
LINE
  5
115
330
1F
100
AcDbEntity
  8
0
  6
Continuous
 62
     7
370
    25
100
AcDbLine
 10
79.8323425481
 20
-55.9395992988
 30
0.0
 11
79.8323425481
 21
-54.9395992988
 31
0.0
  0
LINE
  5
116
330
1F
100
AcDbEntity
  8
0
  6
Continuous
 62
     7
370
    25
100
AcDbLine
 10
94.6768979818
 20
-54.9395992988
 30
0.0
 11
79.8323425481
 21
-54.9395992988
 31
0.0
  0
LINE
  5
117
330
1F
100
AcDbEntity
  8
0
  6
Continuous
 62
     7
370
    25
100
AcDbLine
 10
94.6768979818
 20
-43.9395992988
 30
0.0
 11
94.6768979818
 21
-54.9395992988
 31
0.0
  0
LINE
  5
118
330
1F
100
AcDbEntity
  8
0
  6
Continuous
 62
     7
370
    25
100
AcDbLine
 10
94.6768979818
 20
-43.9395992988
 30
0.0
 11
124.9877871143
 21
-43.9395992988
 31
0.0
  0
LINE
  5
119
330
1F
100
AcDbEntity
  8
0
  6
Continuous
 62
     7
370
    25
100
AcDbLine
 10
124.9877871143
 20
-54.9395992988
 30
0.0
 11
124.9877871143
 21
-43.9395992988
 31
0.0
  0
LINE
  5
11A
330
1F
100
AcDbEntity
  8
0
  6
Continuous
 62
     7
370
    25
100
AcDbLine
 10
199.8323425481
 20
-54.9395992988
 30
0.0
 11
184.9877871143
 21
-54.9395992988
 31
0.0
  0
LINE
  5
11B
330
1F
100
AcDbEntity
  8
0
  6
Continuous
 62
     7
370
    25
100
AcDbLine
 10
199.8323425481
 20
-55.9395992988
 30
0.0
 11
199.8323425481
 21
-54.9395992988
 31
0.0
  0
LINE
  5
11C
330
1F
100
AcDbEntity
  8
0
  6
Continuous
 62
     7
370
    25
100
AcDbLine
 10
154.6768979818
 20
-54.9395992988
 30
0.0
 11
139.8323425481
 21
-54.9395992988
 31
0.0
  0
LINE
  5
11D
330
1F
100
AcDbEntity
  8
0
  6
Continuous
 62
     7
370
    25
100
AcDbLine
 10
154.6768979818
 20
-43.9395992988
 30
0.0
 11
154.6768979818
 21
-54.9395992988
 31
0.0
  0
LINE
  5
11E
330
1F
100
AcDbEntity
  8
0
  6
Continuous
 62
     7
370
    25
100
AcDbLine
 10
154.6768979818
 20
-43.9395992988
 30
0.0
 11
184.9877871143
 21
-43.9395992988
 31
0.0
  0
LINE
  5
11F
330
1F
100
AcDbEntity
  8
0
  6
Continuous
 62
     7
370
    25
100
AcDbLine
 10
184.9877871143
 20
-54.9395992988
 30
0.0
 11
184.9877871143
 21
-43.9395992988
 31
0.0
  0
LINE
  5
120
330
1F
100
AcDbEntity
  8
0
  6
Continuous
 62
     7
370
    25
100
AcDbLine
 10
124.9877871143
 20
-43.9395992988
 30
0.0
 11
154.6768979818
 21
-43.9395992988
 31
0.0
  0
LINE
  5
121
330
1F
100
AcDbEntity
  8
0
  6
Continuous
 62
     7
370
    25
100
AcDbLine
 10
77.3323425481
 20
-196.9395992988
 30
0.0
 11
202.3323425481
 21
-196.9395992988
 31
0.0
  0
LINE
  5
122
330
1F
100
AcDbEntity
  8
0
  6
Continuous
 62
     7
370
    25
100
AcDbLine
 10
199.8323425481
 20
-43.9395992988
 30
0.0
 11
199.8323425481
 21
-54.9395992988
 31
0.0
  0
LINE
  5
123
330
1F
100
AcDbEntity
  8
0
  6
Continuous
 62
     7
370
    25
100
AcDbLine
 10
184.9877871143
 20
-43.9395992988
 30
0.0
 11
199.8323425481
 21
-43.9395992988
 31
0.0
  0
LINE
  5
124
330
1F
100
AcDbEntity
  8
0
  6
Continuous
 62
     7
370
    25
100
AcDbLine
 10
79.8323425481
 20
-54.9395992988
 30
0.0
 11
79.8323425481
 21
-43.9395992988
 31
0.0
  0
LINE
  5
125
330
1F
100
AcDbEntity
  8
0
  6
Continuous
 62
     7
370
    25
100
AcDbLine
 10
79.8323425481
 20
-43.9395992988
 30
0.0
 11
94.6768979818
 21
-43.9395992988
 31
0.0
  0
LINE
  5
126
330
1F
100
AcDbEntity
  8
0
  6
Continuous
 62
     1
370
    25
100
AcDbLine
 10
61.3323425481
 20
-108.4395992988
 30
0.0
 11
218.3323425481
 21
-108.4395992988
 31
0.0
  0
ENDSEC
  0
SECTION
  2
OBJECTS
  0
DICTIONARY
  5
C
330
0
100
AcDbDictionary
281
     1
  3
ACAD_GROUP
350
D
  3
ACAD_LAYOUT
350
1A
  3
ACAD_MLINESTYLE
350
17
  3
ACAD_PLOTSETTINGS
350
19
  3
ACAD_PLOTSTYLENAME
350
E
  3
ACAD_SCALELIST
350
47
  3
DWGPROPS
350
127
  0
DICTIONARY
  5
D
102
{ACAD_REACTORS
330
C
102
}
330
C
100
AcDbDictionary
281
     1
  0
DICTIONARY
  5
1A
102
{ACAD_REACTORS
330
C
102
}
330
C
100
AcDbDictionary
281
     1
  3
Layout1
350
1E
  3
Layout2
350
26
  3
Model
350
22
  0
DICTIONARY
  5
17
102
{ACAD_REACTORS
330
C
102
}
330
C
100
AcDbDictionary
281
     1
  3
Standard
350
18
  0
DICTIONARY
  5
19
102
{ACAD_REACTORS
330
C
102
}
330
C
100
AcDbDictionary
281
     1
  0
ACDBDICTIONARYWDFLT
  5
E
102
{ACAD_REACTORS
330
C
102
}
330
C
100
AcDbDictionary
281
     1
  3
Normal
350
F
100
AcDbDictionaryWithDefault
340
F
  0
DICTIONARY
  5
47
102
{ACAD_REACTORS
330
C
102
}
330
C
100
AcDbDictionary
281
     1
  3
A0
350
48
  3
A1
350
49
  3
A2
350
4A
  3
A3
350
4B
  3
A4
350
4C
  3
A5
350
4D
  3
A6
350
4E
  3
A7
350
4F
  3
A8
350
50
  3
A9
350
51
  3
B0
350
52
  3
B1
350
53
  3
B2
350
54
  3
B3
350
55
  3
B4
350
56
  3
B5
350
57
  3
B6
350
58
  3
B7
350
59
  3
B8
350
5A
  3
B9
350
5B
  3
C0
350
5C
  3
C1
350
5D
  3
C2
350
5E
  3
C3
350
5F
  3
C4
350
60
  3
C5
350
61
  3
C6
350
62
  3
C7
350
63
  3
C8
350
64
  3
C9
350
65
  3
D0
350
66
  3
D1
350
67
  3
D2
350
68
  0
XRECORD
  5
127
102
{ACAD_REACTORS
330
C
102
}
330
C
100
AcDbXrecord
280
     1
  1
DWGPROPS COOKIE
  2

  3

  4

  6

  7

  8
b.kav
  9

300
=
301
=
302
=
303
=
304
=
305
=
306
=
307
=
308
=
309
=
 40
0.0
 41
2459935.584542882
 42
2459935.584543067
  1

 90
        0
  0
LAYOUT
  5
1E
102
{ACAD_REACTORS
330
1A
102
}
330
1A
100
AcDbPlotSettings
  1

  2
none_device
  4

  6

 40
0.0
 41
0.0
 42
0.0
 43
0.0
 44
0.0
 45
0.0
 46
0.0
 47
0.0
 48
0.0
 49
0.0
140
0.0
141
0.0
142
1.0
143
1.0
 70
   688
 72
     1
 73
     0
 74
     5
  7

 75
    16
147
1.0
148
0.0
149
0.0
100
AcDbLayout
  1
Layout1
 70
     1
 71
     1
 10
0.0
 20
0.0
 11
420.0
 21
297.0
 12
0.0
 22
0.0
 32
0.0
 14
1.0000000000E+20
 24
1.0000000000E+20
 34
1.0000000000E+20
 15
-1.0000000000E+20
 25
-1.0000000000E+20
 35
-1.0000000000E+20
146
0.0
 13
0.0
 23
0.0
 33
0.0
 16
1.0
 26
0.0
 36
0.0
 17
0.0
 27
1.0
 37
0.0
 76
     0
330
1B
  0
LAYOUT
  5
26
102
{ACAD_REACTORS
330
1A
102
}
330
1A
100
AcDbPlotSettings
  1

  2
none_device
  4

  6

 40
0.0
 41
0.0
 42
0.0
 43
0.0
 44
0.0
 45
0.0
 46
0.0
 47
0.0
 48
0.0
 49
0.0
140
0.0
141
0.0
142
1.0
143
1.0
 70
   688
 72
     1
 73
     0
 74
     5
  7

 75
    16
147
1.0
148
0.0
149
0.0
100
AcDbLayout
  1
Layout2
 70
     1
 71
     2
 10
0.0
 20
0.0
 11
0.0
 21
0.0
 12
0.0
 22
0.0
 32
0.0
 14
0.0
 24
0.0
 34
0.0
 15
0.0
 25
0.0
 35
0.0
146
0.0
 13
0.0
 23
0.0
 33
0.0
 16
1.0
 26
0.0
 36
0.0
 17
0.0
 27
1.0
 37
0.0
 76
     0
330
23
  0
LAYOUT
  5
22
102
{ACAD_REACTORS
330
1A
102
}
330
1A
100
AcDbPlotSettings
  1

  2
none_device
  4
Letter_(8.50_x_11.00_Inches)
  6

 40
6.35
 41
6.35
 42
6.35000508
 43
6.35000508
 44
215.9
 45
279.4
 46
0.0
 47
0.0
 48
0.0
 49
0.0
140
0.0
141
0.0
142
1.0
143
1.0
 70
  1712
 72
     1
 73
     0
 74
     0
  7

 75
     0
147
1.0
148
0.0
149
0.0
100
AcDbLayout
  1
Model
 70
     1
 71
     0
 10
0.0
 20
0.0
 11
279.4
 21
215.9
 12
0.0
 22
0.0
 32
0.0
 14
0.0
 24
0.0
 34
0.0
 15
279.4
 25
215.9
 35
0.0
146
0.0
 13
0.0
 23
0.0
 33
0.0
 16
1.0
 26
0.0
 36
0.0
 17
0.0
 27
1.0
 37
0.0
 76
     0
330
1F
331
29
  0
MLINESTYLE
  5
18
102
{ACAD_REACTORS
330
17
102
}
330
17
100
AcDbMlineStyle
  2
Standard
 70
     0
  3

 62
   256
 51
90.0
 52
90.0
 71
     2
 49
0.5
 62
   256
  6
BYLAYER
 49
-0.5
 62
   256
  6
BYLAYER
  0
ACDBPLACEHOLDER
  5
F
102
{ACAD_REACTORS
330
E
102
}
330
E
  0
SCALE
  5
48
102
{ACAD_REACTORS
330
47
102
}
330
47
100
AcDbScale
 70
     0
300
1:1
140
1.0
141
1.0
290
     1
  0
SCALE
  5
49
102
{ACAD_REACTORS
330
47
102
}
330
47
100
AcDbScale
 70
     0
300
1:2
140
1.0
141
2.0
290
     0
  0
SCALE
  5
4A
102
{ACAD_REACTORS
330
47
102
}
330
47
100
AcDbScale
 70
     0
300
1:4
140
1.0
141
4.0
290
     0
  0
SCALE
  5
4B
102
{ACAD_REACTORS
330
47
102
}
330
47
100
AcDbScale
 70
     0
300
1:5
140
1.0
141
5.0
290
     0
  0
SCALE
  5
4C
102
{ACAD_REACTORS
330
47
102
}
330
47
100
AcDbScale
 70
     0
300
1:8
140
1.0
141
8.0
290
     0
  0
SCALE
  5
4D
102
{ACAD_REACTORS
330
47
102
}
330
47
100
AcDbScale
 70
     0
300
1:10
140
1.0
141
10.0
290
     0
  0
SCALE
  5
4E
102
{ACAD_REACTORS
330
47
102
}
330
47
100
AcDbScale
 70
     0
300
1:16
140
1.0
141
16.0
290
     0
  0
SCALE
  5
4F
102
{ACAD_REACTORS
330
47
102
}
330
47
100
AcDbScale
 70
     0
300
1:20
140
1.0
141
20.0
290
     0
  0
SCALE
  5
50
102
{ACAD_REACTORS
330
47
102
}
330
47
100
AcDbScale
 70
     0
300
1:30
140
1.0
141
30.0
290
     0
  0
SCALE
  5
51
102
{ACAD_REACTORS
330
47
102
}
330
47
100
AcDbScale
 70
     0
300
1:40
140
1.0
141
40.0
290
     0
  0
SCALE
  5
52
102
{ACAD_REACTORS
330
47
102
}
330
47
100
AcDbScale
 70
     0
300
1:50
140
1.0
141
50.0
290
     0
  0
SCALE
  5
53
102
{ACAD_REACTORS
330
47
102
}
330
47
100
AcDbScale
 70
     0
300
1:100
140
1.0
141
100.0
290
     0
  0
SCALE
  5
54
102
{ACAD_REACTORS
330
47
102
}
330
47
100
AcDbScale
 70
     0
300
2:1
140
2.0
141
1.0
290
     0
  0
SCALE
  5
55
102
{ACAD_REACTORS
330
47
102
}
330
47
100
AcDbScale
 70
     0
300
4:1
140
4.0
141
1.0
290
     0
  0
SCALE
  5
56
102
{ACAD_REACTORS
330
47
102
}
330
47
100
AcDbScale
 70
     0
300
8:1
140
8.0
141
1.0
290
     0
  0
SCALE
  5
57
102
{ACAD_REACTORS
330
47
102
}
330
47
100
AcDbScale
 70
     0
300
10:1
140
10.0
141
1.0
290
     0
  0
SCALE
  5
58
102
{ACAD_REACTORS
330
47
102
}
330
47
100
AcDbScale
 70
     0
300
100:1
140
100.0
141
1.0
290
     0
  0
SCALE
  5
59
102
{ACAD_REACTORS
330
47
102
}
330
47
100
AcDbScale
 70
     0
300
1/128" = 1'-0"
140
0.0078125
141
12.0
290
     0
  0
SCALE
  5
5A
102
{ACAD_REACTORS
330
47
102
}
330
47
100
AcDbScale
 70
     0
300
1/64" = 1'-0"
140
0.015625
141
12.0
290
     0
  0
SCALE
  5
5B
102
{ACAD_REACTORS
330
47
102
}
330
47
100
AcDbScale
 70
     0
300
1/32" = 1'-0"
140
0.03125
141
12.0
290
     0
  0
SCALE
  5
5C
102
{ACAD_REACTORS
330
47
102
}
330
47
100
AcDbScale
 70
     0
300
1/16" = 1'-0"
140
0.0625
141
12.0
290
     0
  0
SCALE
  5
5D
102
{ACAD_REACTORS
330
47
102
}
330
47
100
AcDbScale
 70
     0
300
3/32" = 1'-0"
140
0.09375
141
12.0
290
     0
  0
SCALE
  5
5E
102
{ACAD_REACTORS
330
47
102
}
330
47
100
AcDbScale
 70
     0
300
1/8" = 1'-0"
140
0.125
141
12.0
290
     0
  0
SCALE
  5
5F
102
{ACAD_REACTORS
330
47
102
}
330
47
100
AcDbScale
 70
     0
300
3/16" = 1'-0"
140
0.1875
141
12.0
290
     0
  0
SCALE
  5
60
102
{ACAD_REACTORS
330
47
102
}
330
47
100
AcDbScale
 70
     0
300
1/4" = 1'-0"
140
0.25
141
12.0
290
     0
  0
SCALE
  5
61
102
{ACAD_REACTORS
330
47
102
}
330
47
100
AcDbScale
 70
     0
300
3/8" = 1'-0"
140
0.375
141
12.0
290
     0
  0
SCALE
  5
62
102
{ACAD_REACTORS
330
47
102
}
330
47
100
AcDbScale
 70
     0
300
1/2" = 1'-0"
140
0.5
141
12.0
290
     0
  0
SCALE
  5
63
102
{ACAD_REACTORS
330
47
102
}
330
47
100
AcDbScale
 70
     0
300
3/4" = 1'-0"
140
0.75
141
12.0
290
     0
  0
SCALE
  5
64
102
{ACAD_REACTORS
330
47
102
}
330
47
100
AcDbScale
 70
     0
300
1" = 1'-0"
140
1.0
141
12.0
290
     0
  0
SCALE
  5
65
102
{ACAD_REACTORS
330
47
102
}
330
47
100
AcDbScale
 70
     0
300
1-1/2" = 1'-0"
140
1.5
141
12.0
290
     0
  0
SCALE
  5
66
102
{ACAD_REACTORS
330
47
102
}
330
47
100
AcDbScale
 70
     0
300
3" = 1'-0"
140
3.0
141
12.0
290
     0
  0
SCALE
  5
67
102
{ACAD_REACTORS
330
47
102
}
330
47
100
AcDbScale
 70
     0
300
6" = 1'-0"
140
6.0
141
12.0
290
     0
  0
SCALE
  5
68
102
{ACAD_REACTORS
330
47
102
}
330
47
100
AcDbScale
 70
     0
300
1'-0" = 1'-0"
140
12.0
141
12.0
290
     0
  0
ENDSEC
  0
EOF
